Opm - Heaven Is A Halfpipe Chords & Tabs

 

Heaven Is A Halfpipe Chords & Tabs

Opm Chords & Tabs

Version: 4 Type: Tab 0 ratings
1 star 2 stars 3 stars 4 stars 5 stars
comments

Heaven Is A Halfpipe Tab

   
This is a really easy thing to play but its not 100% correct but its really fun to play
as a beginner. If one player plays the melody and the other plays the chords its really
cool and it also sounds cool if you add a bass (notes are the chords played at the chord
changes). Happy Playing!


    D     G         D       G
e|-----2--3--2---------------------|
B|--3-----------3--0--3------------|
G|---------------------------------|  x4
D|---------------------------------|
A|---------------------------------|
E|---------------------------------|
  If I die before I wake
  at least in heaven I can skate
  cause right now on earth I cant do jack
  without the man up on my back

    D                 G       D        G
e|-----2--2--2--0-----0-------2--2--0--------|
B|--3--------------3-----3-------------3--3--|
G|-------------------------------------------|  x2
D|-------------------------------------------|  
A|-------------------------------------------|
E|-------------------------------------------|
  now heaven would be a dj
  spinning dub all night long 
  and heaven would just kickin back
  with jesus packing my bong

    D                 G     D              G
e|--7--7--7--5--3--5--3-----3--7--7--5--3--3--|
B|--------------------------------------------|
G|--------------------------------------------|  x2
D|--------------------------------------------|
A|--------------------------------------------|
E|--------------------------------------------|
  and if you dont believe in Jesus and muhammad and budha too
  and while the world is warring
  just sit back and laugh at you singing..

[ Tab from: http://www.guitartabs.cc/tabs/o/opm/heaven_is_a_halfpipe_tab_ver_4.html ]
D     G         D       G
e|-----2--3--2---------------------|
B|--3-----------3--0--3------------|
G|---------------------------------|  x4
D|---------------------------------|
A|---------------------------------|
E|---------------------------------|
  If I die before I wake
  at least in heaven I can skate
  cause right now on earth I cant do jack 
  without the man up on my back

 D                 G       D        G
e|-----2--2--2--0-----0-------2--2--0--------|
B|--3--------------3-----3-------------3--3--|
G|-------------------------------------------|  x2
D|-------------------------------------------|  
A|-------------------------------------------|
E|-------------------------------------------|
  now most people think of heaven 
  they see those pearly gates 
  but I looked a little closer
  and theres a sign says "do not skate"

D                 G     D              G
e|--7--7--7--5--3--5--3-----3--7--7--5--3--3--|
B|--------------------------------------------|
G|--------------------------------------------|  x2
D|--------------------------------------------|
A|--------------------------------------------|
E|--------------------------------------------|
  so if you wanna come to my heaven
  well we're all gonna have a ball
  and everyone u know is welcome
  cause we got no gates or walls singing..

D     G         D       G
e|-----2--3--2---------------------|
B|--3-----------3--0--3------------|
G|---------------------------------|  x4
D|---------------------------------|
A|---------------------------------|
E|---------------------------------|
  If I die before i wake
  at least in heaven i can skate
  cause right now on earth I cant do shit
  without the man fucking with it
Comments