Opm - Heaven Is A Halfpipe Chords & Tabs

 

Heaven Is A Halfpipe Chords & Tabs

Opm Chords & Tabs

Version: 1 Type: Tab 0 ratings
1 star 2 stars 3 stars 4 stars 5 stars
comments

Heaven Is A Halfpipe Tab

Artist: OPM
Title: Heaven is a Halfpipe
Submitted by: Oli Morris
E-mail: olimorris@aol.com
Tuning: EADGBE

You can tune down 1/2 a step if you want.


Intro:

clean guitar
E-----------------------------------
B-----------------------------------
G--------8-----8--------------------
D--------8-----8-------6-----6------   repeat a couple of times
A-----6-----6----------6-----6------
E-------------------4-----4---------


Verses:
[ Tab from: http://www.guitartabs.cc/tabs/o/opm/heaven_is_a_halfpipe_tab.html ]
clean guitar
E-------0-----2--2--4--2-----------
B-------0-----2--2--2--2-----------
G----2--1-----2--2--2--2-----------
D----------------------------------
A----------------------------------
E----------------------------------


Chorus:

clean guitar
E--------------------------
B--------------------------
G----8-------------8-------
D----8------6------8------6   repeat
A----6------6------6------6
E-----------4-------------4


Chorus 2:

distorted
E------------------------------
B------------------------------
G----8--xxx------------8--xxx--
D----8--xxx---6--xxx---8--xxx--    repeat
A----6--xxx---6--xxx---6--xxx--
E-------------4--xxx-----------


thats it!
Comments