Opm - Fish Out Of Water Chords & Tabs

 

Fish Out Of Water Chords & Tabs

Opm Chords & Tabs

Version: 1 Type: Tab 0 ratings
1 star 2 stars 3 stars 4 stars 5 stars
comments

Fish Out Of Water Tab

Band: OPM
Song: Fish out of water
Tabbed by Ewan M

h= hammer on 
p= pull off

Intro/verse:
[ Tab from: http://www.guitartabs.cc/tabs/o/opm/fish_out_of_water_tab.html ]
e|------------------------------|
b|------------------------------|
g|--------------2---------------|
d|---------2--3---2-2 h3-p2-----|
a|----2--3-------------------h3-|
e|--3---------------------------|

Chorus:

e|--------------------------|
b|--------------------------|
g|------55------55----------|
d|--55--55--33--55----------|
a|--55--33--33--33----------|
e|--33------11--------------|

That's about it! Easy
Comments