Opeth - To Rid The Disease Chords & Tabs

 

To Rid The Disease Chords & Tabs

Opeth Chords & Tabs

Version: 1 Type: Tab 0 ratings
1 star 2 stars 3 stars 4 stars 5 stars
comments

To Rid The Disease Tab

Artist: Opeth
Song: To rid the disease

Tuning: Standard
Low to high EADGBe

e|-------------------------------------------------------------------------|
B|--7h8-----7h8/10-----7---8-----------------------------------------------|
G|-------9-----------------------9-----------------------------------------|
D|-------------------------------------------------------------------------|
A|-------------------------------------------------------------------------|
E|-------------------------------------------------------------------------|
[ Tab from: http://www.guitartabs.cc/tabs/o/opeth/to_rid_the_disease_tab.html ]
e|-------------------------------------------------------------------------|
B|--7h8-----7h8/10-----8---10----9-----------------------------------------|
G|-------9--------------------------------8\6----6h8-----------------------|
D|---------------------------------------------9-------6---8---9-----8h9---|
A|-------------------------------------------------------------------------|
E|-------------------------------------------------------------------------|

e|---------------------------------------------------------------------------|
B|-------------------------------------------2h3---2-5--3h5p3p2--------------|
G|--7---6h7p6------------------------------------4---------------4-----------|
D|-------------9---------------------------0-----------------------4\2-2-----|
A|-----------------/9--7-----5p4-------0h2-------------------------------2--4|
E|---------------------------------------------------------------------------|

e|-------------------------------------------------------------------------|
B|-------------------------------------------------------------------------|
G|-------------------------------------------------------------------------|
D|--------------------------------------7----------------------------------|
A|--5--------4--5--7--------5--7--9--------9-------------------------------|
E|-------------------------------------------------------------------------|
Comments