Opeth - Patterns In The Ivy Chords & Tabs

 

Patterns In The Ivy Chords & Tabs

Opeth Chords & Tabs

Version: 1 Type: Tab 0 ratings
1 star 2 stars 3 stars 4 stars 5 stars
comments

Patterns In The Ivy Tab

   
Opeth - Patterns In The Ivy
"Blackwater Park"

[Riff A - repeat x4]

|----------0---------0--------------|
|--------0---0---------0------------|
|------2-------2-2/5-----5----------|
|----2-----------2------------------|
|--0-----------------------3p2-0----|
|--------------------------------3--|

[Riff A/2]

|-------------------------------------------------------------------|
|----------0-----------0-------------------3------------------------|
|--------2---2-----------3---------------3---3-----------5-4h5p4----|
|------3-------3-------------4---4-----5-------5-------6---------6--|
|----3-----------3---4---------------5-----------5---6--------------|
|--1---------------2-------2---2---3---------------4----------------|
[ Tab from: http://www.guitartabs.cc/tabs/o/opeth/patterns_in_the_ivy_tab.html ]
[Repeat Riff Ax4 and A/2x1]

[Riff C - x2]
                                  1st ending           2nd ending
|----------------------------------|---------0------|---------------------------
|---------------------------0------|-----4---4------|------5---4-----3-------1--
|-----0-------0-----0-----2---2----|---4-------4----|------0---0-----0-------0--
|---0---0---0-----0-----2-------2--|--4----------4--|--------------0-------0----
|/6-------5-----3-----0------------|2--------------2|------7---6-----5-------3--
|----------------------------------|----------------|--0-----0---0-------0------

[Repeat Riff Ax7]
end on -
|-----|
|-----|
|-----|
|-----|
|--0--|
|-----|

Corrections, Comments, Hate Mail and Death Threats to -
clangerfreak@hotmail.com

~*jinxx*~
Comments