Opeth - Madrigal Chords & Tabs

 

Madrigal Chords & Tabs

Opeth Chords & Tabs

Version: 1 Type: Tab 0 ratings
1 star 2 stars 3 stars 4 stars 5 stars
comments

Madrigal Tab

   
OPETH - MADRIGAL
                        From the Album MAYH
                    Copyright 1997 Candlelight RECORDS

  - pam mute                     /  - slide up to
\  - slide down to                ~  - vibrato
h  - hammer on                    b  - bend
p  - pull off                          Suffixes for bend
ph - pinch harmonic                     f - full bend    h - half bend
*  - see comment                        r - release      t - tap bend
X  - percussion note                    ~ - vibrato bend
@  - slight palm mute             ()  - ghost note, sustained note
"  - tremolo pick until next note

Opeth - MADRIGAL

Tune to E (E,A,D,G,B,E)

Intro (fade in)DELAY

[ Tab from: http://www.guitartabs.cc/tabs/o/opeth/madrigal_tab.html ]
|---------------------------------|-2---------------------------|-2--------------------------|
|---------------------------------|-------1---0-----------------|-------1--------------------|
|---------------------------------|-----2-0---0--------0--------|-----2-0---0--------0-------|
|--4-4-4-5-5-5--------------------|-----------------------/3-2--|-----------2-----------/3-2-|
|--7-7-7-7-7-7-7-7-7-7-7-7-7-7-7--|---0-------------3-----------|---0-------------3----------|
|--------------7-7-8-8-8-8-8-8-8--|-0---------0--1--------------|-0---------0--1-------------|

					(swell volume) i let theme to you
|----------------------------0----|-2---------------------------|-2--------------------------|
|----------------------------0----|-------1---0-----------------|-------1--------------------|
|--0------0------0--------5-------|-----2-0---0--------0--------|-----2-0---0--------0-------|
|----4------4------4------7-------|-----------------------/3-2--|-----------2-----------/3-2-|
|------7------7------7--0---------|---0-------------3-----------|---0-------------3----------|
|--0------6------7----------------|-0---------0--1--------------|-0---------0--1-------------|
Comments