Opeth - Hope Leaves Chords & Tabs

 

Hope Leaves Chords & Tabs

Opeth Chords & Tabs

Version: 3 Type: Tab 0 ratings
1 star 2 stars 3 stars 4 stars 5 stars
comments

Hope Leaves Tab

standard tuning w/ capo on 2

riff 1
|-------------------2---------------------------------2----------------|
|------------2--------2----2--------------------2-------2---2----------|
|-------7------7--------7----7-------------7------7-------7---7-----7--|
|-----7---7------7---------------7---7---7---7------7-------------7---7|
|--2-------------------------------------------------------------------|
|------------------------------5---2---3------------------------5------|

riff 2
|------------------2-------2--------|-----------------------------------|
|------3---2h3-------3p2-----3p2----|------3---2h3-2--------------------|
|o----4---4------------------------o|----4---4-------------2-------2----|
|o---------------------------------o|--------------------5---5---5---5--|
|-----------------------------------|-----------------------------------|
|--4-----------4-3-------3-------4--|--4---------------3-------5--------|
[ Tab from: http://www.guitartabs.cc/tabs/o/opeth/hope_leaves_tab_ver_3.html ]
riff 3a
|-------------------------------------------------------------------|
|-------------------------------------------------------------------|
|------4-------2-----2-----2-----------4-------2-----2-----2-----2--|
|----4---4---2-----2-----2-----------4---4---2-----2-----2-----2----|
|--2------/7-----4-----5-----4h5---2-------4-----5----/7----/9------|
|--------------------------------5----------------------------------|
riff 3b
|-----------------------------------------------------------------------|
|-----------------------------------------------------------------------|
|------4-------2-----2-----2-----------4-----------------------9--------|
|----4---4---2-----2-----2-----------4---4-----------7------10---10-----|
|--2------/7-----4-----5-----4h5---2---------------7-----10---------10--|
|--------------------------------5---------3----/5----/8----------------|

1st solo w/riff 1 under
|---------|--------/9-10-10/12-|--10p9-----|----------------------------|
|--10/12--|--10/12-------------|-------12--|--10--12p10-----------------|
|---------|--------------------|-----------|-------------9--7--9--9/11--|
|---------|--------------------|-----------|----------------------------|
|---------|--------------------|-----------|----------------------------|
|---------|--------------------|-----------|----------------------------|

riff 4
|--2--2-----|---------------|-----------|---------------------|
|--2--2--6--|---------------|--------2--|---------------------|
|--4--4--6--|--4--2-2-------|------2----|--------2-4-6----/7--|
|--4--4--4--|--4--2-2-------|-----------|---------------------|
|-----------|--2--4-4-------|-----------|---------------------|
|-----------|---------2-3---|--5-5------|--5-6----------------|

2nd solo w/riff 1 (played twice)
play this on repeat of riff 1
|-------------------|
|-------------------|
|-------------------|
|-11/12\11\9/11/7---|
|----------------7/9|
|-------------------|


order
riff 1   6x
riff 2   1x
riff 3a  1x
riff 3b  1x
1st solo w/ riff 1 2x
riff 1   4x
riff 2   1x
riff 3a  2x
riff 4   1x
riff 1   2x w/ 2nd solo on repeat
riff 1   4x
riff 2   1x
riff 3a  until fade
Comments