Opeth - Hope Leaves Chords & Tabs

 

Hope Leaves Chords & Tabs

Opeth Chords & Tabs

Version: 2 Type: Tab 0 ratings
1 star 2 stars 3 stars 4 stars 5 stars
comments

Hope Leaves Tab

Artist - Opeth
Album - ***ation
Song - "Hope Leaves"
Tabbed by Jonathan R. a.k.a. "hemi" or "ambush"
e-mail: super_hemi_8@yahoo.com

Standard Tuning

This tab is written in sections, and at the end of the
tab, the order of the "Rhy/Lead Figs" and how many times
each "Rhy/Lead Fig" (Rhythm Figure) is played. Have fun.



Rhy Fig 1
e---------------2-------------------------------2-----------------|
B-----3---2h3-----2h3-2h3-------------3---2h3-----2h3-2h3-----3---|
G-------------2-------------2---2-------------2-------------2---2-|
D-----------------------------------------------------------------|
A-2-0---------------------0---------0---------------------0-------|
E-----------------------------2---3-------------------------------|

Rhy Fig 2
e-----------------2-------2-------|
B-----3---2h3-------3p2-----3p2---|
G---4---4-------------------------|
D---------------------------------|
A---------------------------------|
E-4-----------4-3-------3-------4-|

Rhy Fig 3
e-------------------------------|
B-----3---2h3-------------------|
G---4---4-----------2-------2---|
D-----------------5---5---5---5-|
A-----------------------0-------|
E-4-------------3---------------|

Rhy Fig 4
e-------------0-----------------|-------------------------------|
B-------------------------------|-------------------------------|
G-----4-------------2-----2-----|-----4-------2-----2----2----2-|
D---4---4---------2-----2-------|---4---4---2-----2---2----4----|
A-2-------/7----4-----5-----0---|-2-------4-----5---------------|
E-----------------------------2-|-------------------------------|
[ Tab from: http://www.guitartabs.cc/tabs/o/opeth/hope_leaves_tab_ver_2.html ]
Rhy Fig 5
e-------------0-----------------|---------------------------0-----|
B-------------------------------|-------------------------1---1---|
G-----4-------------2-----2-----|-----4-------0-----2---0-------0-|
D---4---4---------2-----2-------|---4---4---0-----2---------------|
A-2-------/7----4-----5-----0---|-2-------------0-----3-----------|
E-----------------------------2-|---------3-----------------------|

Lead Fig 1
e------------------------------------------------------|
B-12~--12-14-15-15/17~--15-14-12--10-12\10-------------|
G------------------------------------------\9-7-9-9/11-|
D------------------------------------------------------|
A------------------------------------------------------|
E------------------------------------------------------|

Rhy Fig 6
e-2-2--------------------------------------|
B-2-2-6------------------------------------|
G-4-4-6---4-2-2-----------6------2-4-6--/7-|
D-4-4-4---4-2-2-0-------7------------------|
A---------2-4-4-5-----0--------0-----------|
E---------------3---5--------5-------------|

Lead Fig 2
e-----------------|
B-----------------|
G-6h7p6-4h6-2-----|
D-------------2h4-|
A-----------------|
E-----------------|

--------------------------------------
Play in this order, x amount of times:

Rhy Fig 1 - 6x 
Rhy Fig 2 - 2x
Rhy Fig 3 - 1x
Rhy Fig 4 - 1x
Rhy Fig 5 - 1x
Rhy Fig 1 - 2x     <- (These two patterns
Lead Fig 6 - 1x    <- played together)
Rhy Fig 1 - 4x
Rhy Fig 2 - 2x
Rhy Fig 3 - 1x
Rhy Fig 4 - 4x
Rhy Fig 6 - 1x
Rhy Fig 1 - 2x     <- (These two patterns played together, the lead pattern comes
Lead Fig 2 - 1x    <- in the second time you play Rhy Fig 1, then Rhy Fig 1 continues)
Rhy Fig 1 - 4x
Rhy Fig 2 - 2x
Rhy Fig 3 - 1x
Rhy Fig 4 - Play until fade out..
Comments