Opeth - Harvest Chords & Tabs

 

Opeth Chords & Tabs

Version: 1 Type: Tab 0 ratings
1 star 2 stars 3 stars 4 stars 5 stars
comments

Harvest Tab

Tabber: Unknown
Artist:opeth
Album:blackwater park
Song:harvest
Author:unknown
Submitted:frank sortelli
Tuning:unknown


I.repeat 4 times
 |--0-----0-----0-----0-----0-----0-----0-----0-------|
 |--0-----0-0---0-----0-0---0-----0-0---0-----0-0-----|
 |--0-----0-0-0-0-----0-0-0-0-----0-0-0-0-----0-0-0---|
 |--2-------2-2-2-------2-2-5-------5-5-0-------2-2---|
 |--2-----------2-----------2-----------2-------------|
 |--0-----------0-----------0-----------0-------------|

 II.repeat 4 times
 acoustic gtr
 |--7-7-7-7-----5-5-5-5-----3---3-3-----2-2-2-2-----3-3-3-0-0-0-0-----0-----0-----0-----0-----0-------|
 |--8-8-8-8-----5-5-5-5-----3---3-3-----3-3-3-3-----3-3-3-0-0-0-0-----0-0---0-----0-0---0-----0-0-----|
 |--9---9-------7---7-------5-----5-----4---4-------3---3---0---0-----0-0-0-0-----0-0-0-0-----0-0-0---|
 |--9-----------7-----------5-----------4-----------5-----------2-------2-2-5-------5-5-0-------2-2---|
 |--7-----------5-----------3-----------2-----------5-----------2-----------2-----------2-------------|
 |--------------------------------------------------3-----------0-----------0-----------0-------------|
 |electric gtr
 |--------------------------------------5-----------7-------10----------------------------------------|
 |--5--------------------------------------------------------*--5-------------------------------------|
 |----------------------------------------------------------------------------------------------------|
 |----------------------------------------------------------------------------------------------------|
 |----------------------------------------------------------------------------------------------------|
 |----------------------------------------------------------------------------------------------------|
 *play times 2 & 4

 III.1st short transition
  ac. gtr
 |----------------|
 |----------------|
 |----------------|
 |--7-----9-------|
 |--7-----9-------|
 |--5-----7-------|
 |el. gtr
 |----------------|
 |--5-------------|
 |----4-----------|
 |--------5h7-5---|
 |----------------|
 |----------------|

 IV.repeat 4 times
  acoustic gtr
 |--0-----0-----0-----0-----0-----0-------------------|
 |--0-----0-0---0-----0-0---0-----0-0-----------------|
 |--0-----0-0-0-0-----0-0-0-0-----0-0-0---------------|
 |--2-------0-0-2-------0-0-5-------0-0-7-----9-------|
 |--2-----------2-----------2-----------7-----9-------|
 |--0-----------0-----------0-----------5-----7-------|
 |electric gtr
 |----------------------------------------------------|
 |----------------------------------------------------|
 |----------------------------------------------------|
 |--4---------let ring...-----------------------------|
 |----------------------------------------------------|
 |----------------------------------------------------|

 
 |--3-----3-3-3-3-----3-3-3-3-----3-3---4-----4-4---3-----3-3-3-3-----3-3-3-3-----3-3-3-3-----3-3-3---|
 |--3-----3-3-3-3-----3-3-3-4-----4-4---4-----4-4---3-----3-3-3-3-----3-3-3-3-----3-3-3-3-----3-3-3---|
 |--5-------5---5-------5---5-------5---4-------4---3-------3---3-------3---4-------4---4-------4-----|
 |--5-----------5-----------5-----------6-----------5-----------5-----------5-----------5-------------|
 |--3-----------3-----------3-----------6-----------5-----------5-----------5-----------5-------------|
 |--------------------------------------4-----------3-----------3-----------3-----------3-------------|

 VI.chorus
  
 |--0-----0-----0-----0-----0-----0-----0-----0-----3-----3-----3-----3-----3-----3-----3-----3-------|
 |--0-----0-0---0-----0-0---0-----0-0---0-----0-0---3-----3-3---3-----3-3---3-----3-3---3-----3-3-----|
 |--0-----0-0-0-0-----0-0-0-0-----0-0-0-0-----0-0-0-3-----3-3-3-3-----3-3-3-3-----3-3-3-3-----3-3-3---|
 |--2-------2-2-2-------2-2-2-------2-2-2-------2-2-5-------5-5-5-------5-5-5-------5-5-5-------5-5---|
 |--2-----------2-----------2-----------2-----------5-----------5-----------5-----------5-------------|
 |--0-----------0-----------0-----------0-----------3-----------3-----------3-----------3-------------|
 |electric gtr
 |-------0---let ring...------------------------------------------------------------------------------|
 |------0-------------------------------------------0---let ring: volume goes up & down...------------|
 |-----0--------------------------------------------0-------------------------------------------------|
 |----2-----------------------------------------------------------------------------------------------|
 |---2------------------------------------------------------------------------------------------------|
 |--0-------------------------------------------------------------------------------------------------|


 |--7-----7-----7-----7-----3-----3-----3-----3-----2-----2-----2-----2-----2-----2-----2-----2-------|
 |--8-----8-8---8-----8-8---3-----3-3---3-----3-3---2-----2-2---2-----2-2---2-----2-2---2-----2-2-----|
 |--9-----9-9-9-9-----9-9---4-----4-4-4-4-----4-4-4-2-----2-2-2-2-----2-2-2-3-----3-3-3-3-----3-3-3---|
 |--9-------9-9-9-------9---5-------5-5-5-------5-5-4-------4-4-4-------4-4-4-------4-4-4-------4-4---|
 |--7-----------7-----------5-----------5-----------4-----------4-----------4-----------4-------------|
 |--------------------------3-----------3-----------2-----------2-----------2-----------2-------------|
[ Tab from: http://www.guitartabs.cc/tabs/o/opeth/harvest_tab.html ]
  
 acoustic gtr
 |--0-----0-----0-----0-----0-----0-----0-----0-----3-----3-----3-----3-----3-----3-----3-----3-------|
 |--0-----0-0---0-----0-0---0-----0-0---0-----0-0---3-----3-3---3-----3-3---3-----3-3---3-----3-3-----|
 |--0-----0-0-0-0-----0-0-0-0-----0-0-0-0-----0-0-0-3-----3-3-3-3-----3-3-3-3-----3-3-3-3-----3-3-3---|
 |--2-------2-2-2-------2-2-2-------2-2-2-------2-2-5-------5-5-5-------5-5-5-------5-5-5-------5-5---|
 |--2-----------2-----------2-----------2-----------5-----------5-----------5-----------5-------------|
 |--0-----------0-----------0-----------0-----------3-----------3-----------3-----------3-------------|
 |electric gtr
 |-------0---let ring...------------------------------------------------------------------------------|
 |------0-------------------------------------------0---let ring: volume goes up & down...------------|
 |-----0--------------------------------------------0-------------------------------------------------|
 |----2-----------------------------------------------------------------------------------------------|
 |---2------------------------------------------------------------------------------------------------|
 |--0-------------------------------------------------------------------------------------------------|

 
 |--7-----7-----7-----7-7---5-----5-----5-----5-5---5-----5-----5-----5-5---4-------------------------|
 |--8-----8-8---8-----8-8---5-----5-5---5-----5-5---5-----5-5---5-----5-5---4-------------------------|
 |--9-----9-9-9-9-----9-9---7-----7-7-7-7-----7-7---5-----5-5-5-5-----5-5---5-------------------------|
 |--9-------9-9-9-------9---7-------7-7-7-------7---7-------7-7-7-------7---6-------------------------|
 |--7-----------7-------7---5-----------5-------5---7-----------7-------7---6-------------------------|
 |--------------------------------------------------5-----------5-----------4-------------------------|

 VII.2nd transition:
 |--------4-4-4-4-----4-4-4-3-----3-3-3-3-----3-3-3-3-----3-3-3-3-----3-3-3---|
 |--------4-4-4-4-----4-4-4-4-----4-4-4-4-----4-4-4-3-----3-3-3-3-----3-3-3---|
 |--5-------5---5-------5---5-------5---5-------5---4-------4---4-------4-----|
 |--6-----------6-----------5-----------5-----------5-----------5-------------|
 |--6-----------6-----------3-----------3-----------5-----------5-------------|
 |--4-----------4-----------------------------------3-----------3-------------|

 

 VIII.guitar solo:
  rhythm acoustic guitar: repeat throughout the whole solo...
 |--1-----1-----1-----1-----0-----0-----0-----0-----4-----4-4---2-----2-----3-----3-----3-----3------|
 |--1-----1-1---1-----1-1---1-----1-1---1-----1-1---4-----4-4---3-----3-3---3-----3-3---3-----3-3----|
 |--1-----1-1-1-1-----1-1-1-2-----2-2-2-2-----2-2-2-4-----4-4---4-----4-4-4-3-----3-3-3-3-----3-3-3--|
 |--3-------3-3-3-------3-3-2-------2-2-2-------2-2-6-------6---4-------4-4-5-------5-5-5-------5-5--|
 |--3-----------3-----------0-----------0-----------6-------6---2-----------5-----------5------------|
 |--1-----------1-----------------------------------4-----------------------3-----------3------------|

 lead electric guitar:
 1.2.3.4.
 |-------------------------------------------------------|el. gtr I
 |--3------5-6-5p3-------3-5---4-------------------------|
 |-----------------5-----------------4-----3-------------|
 |-----------------------------------------------5-------|
 |-------------------------------------------------------|
 |-------------------------------------------------------|
 |3.4.
 |--1------3-5-3p1-------1-3-3/4-----2-----3-------------|el. gtr II
 |-----------------5-----------------------------3-------|
 |-------------------------------------------------------|
 |-------------------------------------------------------|
 |-------------------------------------------------------|
 |-------------------------------------------------------|

 |----------9/10-12-13-10h12p10----10-12b-----------10h11-----10-------------------------|el. gtr I
 |--3---------------------------13-------------------------------10--------------11------|goes on...
 |------------------------------------------------------------------10--------12----12---|
 |---------------------------------------------------------------------12-----------.----|
 |---------------------------------------------------------------------------------------|
 |---------------------------------------------------------------------------------------|

 |-----------------------------------------------------------------------------------------------|
 |-----------------------------------------------------------------------------------------------|
 |--12\7-------------------------------7---9---10---8-------7/8---\7---------8---7---8p7-5h7-----|
 |-----------8-----7---5h7-----------7-------------------------------------7-----------------7---|
 |-----------------.-----------------------------------------------------------------------------|
 |-----------------------------------------------------------------------------------------------|

 |----5---3h5---7h8p7--------------------------------------------------|
 |--5-------.---------10-----------------------------------------------|
 |-----------------------9---------8-----7/8---8-7-5-------------------|
 |---------------------------------------------------------------------|
 |---------------------------------------------------0-.---------/12---|
 |-----------------------------------------------------3---6---3-------|

 |----------------------------5/10-15p10\5-10b11-4-----6---7---6h7p6p4-----|
 |----10---8/10-------------8----------------------------------------------|
 |--7------------------------------------------------------------------7---|
 |-------------------------------------------------------------------------|
 |-------------------------------------------------------------------------|
 |-------------------------------------------------------------------------|



 IX.3rd transition:
 |--------------4-----4-----3-----3-3-3-3-----3-3-3-------x-----3---3--------|
 |------------4-4-----4-4---4-----4-4-4-4-----4-4-4-3---3-x-x---3---3--------|
 |--5-----5-5-5-5-----5-5-5-5-------5---5-------5---4---4-x-x-x-4---4--------|
 |--6-----6-6-6-6-------5-5-5-----------5-----------5---5---x-x-5---5--------|
 |--6-------6---6-----------3-----------3-----------5---5-------5---5--------|
 |--4-----------------------------------------------3---3-------3---3--------|

 repeat II

 X.end with this Em:
 |--0--|
 |--0--|
 |--0--|
 |--2--|
 |--2--|
 |--0--|
Comments