Opeth - Grand Conjuration Chords & Tabs

 

Grand Conjuration Chords & Tabs

Opeth Chords & Tabs

Version: 1 Type: Tab

Grand Conjuration Tab

   
OPETH - THE GRAND CONJURATION
GHOST REVERIES

DROP D
[ Tab from: http://www.guitartabs.cc/tabs/o/opeth/grand_conjuration_tab.html ]
Main riff:
|-------------------------------------------------------------------|
|-------------------------------------------------------------------|
|.-----------------------------------------------------------------.|
|.-1--0--4---------5--4--7--------12-10--6---------7--6--0---------.|
|--1--0--4---------5--4--7--------12-10--6---------7--6--0----------|
|--1--0--4---------5--4--7--------12-10--6---------7--6--0----------|

Verse:
                            (Play 3x)
|-----------------------------------|-----------------------------------|
|-----------------------------------|-----------------------------------|
|.---------------------------------.|-----------------------------------|
|.---------------------------------.|-----------------------------------|
|--0--1--0--------------------------|-12-10--6--------------------------|
|--0--1--0--------------------------|-12-10--6--------------------------|