Opeth - Demon Of The Fall Chords & Tabs

 

Demon Of The Fall Chords & Tabs

Opeth Chords & Tabs

Version: 2 Type: Tab 0 ratings
1 star 2 stars 3 stars 4 stars 5 stars
comments

Demon Of The Fall Tab

   
Submitted by Oranje Bonce   corrections send to serenitypainteddeath@hotmail.com

AS FAR AS I KNOW THESE ARE 100% CORRECT, so if theyre wrong im sorry

Band - Opeth
Song - Demon Of The Fall
Album- My Arms Your Hearse


Tuning: D,A,D,G,B,E (Drop D)
\ = slide down neck
/ = slide up neck
. = palm mute
h = hammer on
p = pull off

Riff 1:
Distorted
Both Guitars
E:--------------------------------------------|
B:--------------------------------------------|
G:-7-7-7-7-7-7-7-7-7-7-7-7-7-7-7-7-7-7-7-7----|
D:-x-x-x-x-x-x-x-x-x-x-x-x-x-x-x-x-x-x-x-x----|
A:-5-5-5-5-5-5-5-5-5-5-5-5-5-5-5-5-5-5-5-5----|
D:-0-0-0-0-0-7-7-7-7-7-6-6-6-6-6-6-6-6-6-6----|

Guitar 1

E:--------------------------------------------|
B:--------------------------------------------|
G:--------------------------------------------|
D:--------------------------------------------|
A:-----6-3-3h5-5-------------6-6-8-9-8-6------|
D:-6h8-----------0-0-0-0-6h8------------------|
                 . . . .
Guitar 2

E:--------------------------------------------|
B:--------------------------------------------|
G:--------------------------------------------|
D:--------------------------------------------|
A:-----6-3-3h5-5-------------6-6-8-9-8-9------|
D:-6h8-----------0-0-0-0-6h8------------------|
                 . . . .
Distorted
(Ending Riff)
E:--------------------------------------------|
B:--------------------------------------------|
G:--------------------------------------------|
D:-6-1-1--------------------------------------|
A:-6-1-1--------------------------------------|
D:-6-1-1--------------------------------------|

Riff 2:
Distorted
E:--------------------------------------------|
B:--------------------------------------------|
G:-14-14-14-14-14/9-9-9-9-9-9\10-10-10-10-10--|
D:--x--x--x--x--x-x-x-x-x-x-x--x--x--x--x--x--|
A:-12-12-12-12-12/7-7-7-7-7-7\-8--8--8--8--8--|
D:--0--0--0--0--0-0-0-0-0-0-0--0--0--0--0--0--|

E:--------------------------------------------|
B:--------------------------------------------|
G:-10-10-10-10-10-10-10-10-10-10-10\14-14-14--|
D:--x--x--x--x--x--x--x--x--x--x--x--x--x--x--|
A:--8--8--8--8--8--8--8--8--8--8--8\12-12-12--|
D:--0--0--0--0--0--0--0--0--0--0--0--0--0--0--|

E:--------------------------------------------|
B:--------------------------------------------|
G:-14-14-14-14-14-14-14-14-14-14-14-14-14-14--|
D:--x--x--x--x--x--x--x--x--x--x--x--x--x--x--|
A:-12-12-12-12-12-12-12-12-12-12-12-12-12-12--|
D:--0--0--0--0--0--0--0--0--0--0--0--0--0--0--|

E:--------------------------------------------|
B:--------------------------------------------|
G:-14-14/7-7-7-7-7-10-10-9-9-9-9-9-9-9\13-13--|
D:--x--x-x-x-x-x-x--x--x-x-x-x-x-x-x-x--x--x--|
A:-12-12/5-5-5-5-5--8--8-7-7-7-7-7-7-7\11-11--|
D:--0--0-0-0-0-0-0--0--0-0-0-0-0-0-0-0--0--0--|

E:--------------------------------------------|
B:--------------------------------------------|
G:-13-13-13-13-12-12-12-12-10-7-7-7-7-7-7-----|
D:--x--x--x--x--x--x--x--x--x-x-x-x-x-x-x-----|
A:-11-11-11-11-10-10-10-10--8-5-5-5-5-5-5-----|
D:--0--0--0--0--0--0--0--0--0-0-0-0-0-0-0-----|

Guitar 2

E:---------------------------------------------|
B:---------------------------------------------|
G:-4-4-4-4-4-6-6-6-6-6-7-7-7-7-7-7-7-7-7-7-7-7-|
D:-x-x-x-x-x-x-x-x-x-x-x-x-x-x-x-x-x-x-x-x-x-x-|
A:-2-2-2-2-2-4-4-4-4-4-5-5-5-5-5-5-5-5-5-5-5-5-|
D:-0-0-0-0-0-0-0-0-0-0-0-0-0-0-0-0-0-0-0-0-0-0-|

E:----------------------------------------------|
B:----------------------------------------------|
G:-7-7-7-9-9-9-9-9-9\10-10-10-10-10-10-10-10-10-|
D:-x-x-x-x-x-x-x-x-x--x--x--x--x--x--x--x--x--x-|
A:-5-5-5-7-7-7-7-7-7\-8--8--8--8--8--8--8--8--8-|
D:-0-0-0-0-0-0-0-0-0--0--0--0--0--0--0--0--0--0-|

E:----------------------------------------------|
B:----------------------------------------------|
G:-10-10-12-12-12-12-12-14-14-14-14-14-14-14-14-|
D:--x--x--x--x--x--x--x--x--x--x--x--x--x--x--x-|
A:--8--8-10-10-10-10-10-12-12-12-12-12-12-12-12-|
D:--0--0--0--0--0--0--0--0--0--0--0--0--0--0--0-|

E:----------------------------------------------|
B:----------------------------------------------|
G:-14-14-13-13-13-13-13-12-12-12-12-12-10-10-10-|
D:--x--x--x--x--x--x--x--x--x--x--x--x--x--x--x-|
A:-12-12-11-11-11-11-11-10-10-10-10-10--8--8--8-|
D:--0--0--0--0--0--0--0--0--0--0--0--0--0--0--0-|

E:----------------------|
B:----------------------|
G:-10-10-10-10-10-10-10-|
D:--x--x--x--x--x--x--x-|
A:--8--8--8--8--8--8--8-|
D:--0--0--0--0--0--0--0-|

Riff 3:
Distorted
E:--------------------------------------------|
B:--------------------------------------------|
G:-8-8-8-8-7-7-7-----------8-8-8-8-7-7-7------|
D:-8-8-8-8-7-7-7-----------8-8-8-8-7-7-7------|
A:-6-6-6-6-5-5-5-----------6-6-6-6-5-5-5------|
D:---------------1\6-6-6-6--------------------|

E:--------------------------------------------|
B:--------------------------------------------|
G:-7-7-5--------------------------------------|
D:-7-7-5---3-3-3------------------------------|
A:-5-5-3---3-3-3------------------------------|
D:-0-5-3---3-3-3------------------------------|

Guitar 2

E:--------------------------------------------|
B:--------------------------------------------|
G:--------------------------------------------|
D:-1-1-1-1-0-0-0-----------1-1-1-1-0-0-0------|
A:-1-1-1-1-0-0-0-----------1-1-1-1-0-0-0------|
D:-1-1-1-1-0-0-0-1\6-6-6-6-1-1-1-1-0-0-0------|

E:--------------------------------------------|
B:--------------------------------------------|
G:-7-7-5--------------------------------------|
D:-7-7-5---3-3-3------------------------------|
A:-5-5-3---3-3-3------------------------------|
D:-0-5-3---3-3-3------------------------------|


Riff 4:
Clean
E:-5-5-5---------------------4-4-4------------|
B:-3-3-3---------------------3-3-3------------|
G:-2-2-2-------------5\7-----2-2-2------------|
D:-0-0-0---------------------0-0-0------------|
A:-------------------3\5----------------------|
D:-------3p0-0-0-0-0-----0-0-------3p0-0-0-0--|
[ Tab from: http://www.guitartabs.cc/tabs/o/opeth/demon_of_the_fall_tab_ver_2.html ]
E:-----------3-3-1----------------------------|
B:-----------3-3-3----------------------------|
G:---5\7-----2-2-2-------------5\7------------|
D:-----------0-0-0----------------------------|
A:---3\5-----------------------3\5------------|
D:-0-----0-0-------3p0-0-0-0-0----------------|

E:--------------------------------------------|
B:-5-5--6-6--8--5--11-11----------------------|
G:-x-x--x-x--x--x---x--x----------------------|
D:-2-2--3-3--5--2---8--8----------------------|
A:--------------------------------------------|
D:--------------------------------------------|


Riff 5: (Riff 4 but distorted)


Riff 6:
Clean
(Part 1)
E:---------------------------------------------|
B:---------------------------------------------|
G:---------------------------------------------|
D:---4-------4---4-------4---------------------|
A:-0---0---0---0---0---0-----------------------|
D:-------4-----------4-------------------------|

Riff 7:
Distorted

E:---------------------------------------------|
B:---------------------------------------------|
G:-------------7-7-7-7-7-7/6-6-6-6-6-5-5-5-5-5-|
D:-------------x-x-x-x-x-x-x-x-x-x-x-0-0-0-0-0-|
A:---0-0-0-0-0-5-5-5-5-5-5/4-4-4-4-4-0-0-0-0-0-|
D:---0-0-0-0-0-----------------------0-0-0-0-0-|

E:---------------------------------------------|
B:---------------------------------------------|
G:---------------------------------------------|
D:---------------10-9-7-6-5--------------------|
A:---------5-7\8-------------8-----------------|
D:-8-7-0-7-------------------------------------|

Riff 8:
Distorted
Guitar 1
E:---------------------------------------------| Guitar Repeated 4 Times
B:---------------------------------------------|
G:-3-3-3-3-3-3\8-8-8-8-8-8\9-9-9-9-9-9-9-9-9-9-|
D:-x-x-x-x-x-x-x-x-x-x-x-x-x-x-x-x-x-x-x-x-x-x-|
A:-1-1-1-1-1-1\6-6-6-6-6-6\7-7-7-7-7-7-7-7-7-7-|
D:---------------------------------------------|

Distorted
Guitar 2
E:----------------------------------------------| Guitar 2 repeated Twice
B:----------------------------------------------|
G:-6-6-6-6-6\13-13-13-13-13/5-5-5-5-5-5-5-5-5-5-|
D:-x-x-x-x-x--x--x--x--x--x-x-x-x-x-x-x-x-x-x-x-|
A:-4-4-4-4-4\11-11-11-11-11/3-3-3-3-3-3-3-3-3-3-|
D:----------------------------------------------|

E:-----------------------------------------------|
B:-----------------------------------------------|
G:-6-6-6-6-6\13-13-13-13-13/12\13/13-13-13-13-13-|
D:-x-x-x-x-x--x--x--x--x--x--x--x--x--x--x--x--x-|
A:-4-4-4-4-4\11-11-11-11-11/10\11/10-10-10-10-10-|
D:-----------------------------------------------|

E:----------------|
B:----------------|
G:-12-12-12-12-12-|
D:--x--x--x--x--x-|
A:-10-10-10-10-10-|
D:----------------|

Both guitars (ending of riff)

E:---------------|
B:-9-9-9-9-9-9-9-|
G:-7-7-7-7-7-7-7-|
D:-6-6-6-6-6-6-6-|
A:---------------|
D:---------------|


Riff 9 :
Clean
(Part 1)
E:-0-----------0-------------------------------|
B:---4-------4---4-------4---------------------|
G:-----0---0-------0---0-----------------------|
D:-------4-----------4-------------------------|
A:---------------------------------------------|
D:---------------------------------------------|

Distorted
(Ending of riff)
E:---------------------------------------------|
B:---------------------------------------------|
G:---------------------------------------------|
D:---------------------------------------------|
A:-5-4---------5-------------------------------|
D:-----0-0-2-3---5-6-6-------------------------|

Riff 10:
Distorted

Guitar 1

E:----------------------------------------------|
B:----------------------------------------------|
G:----------------------------------------------|
D:-8-8-8-8-8-8-8-8-8-8-7-7-7-7-7-10-10-10-10-10-|
A:-5-5-5-5-5-5-5-5-5-5-8-8-8-8-8--8--8--8--8--8-|
D:-5-5-5-5-5-5-5-5-5-5-0-0-0-0-0--0--0--0--0--0-|

E:---------------------------------------------|
B:---------------------------------------------|
G:---------------------------------------------|
D:-9-9-9-9-9-9-9-9-9-9-9-9-9-9-9-9-9-9-9-9-----|
A:-7-7-7-7-7-7-7-7-7-7-7-7-7-7-7-7-7-7-7-7-----|
D:-7-7-7-7-7-7-7-7-7-7-7-7-7-7-7-7-7-7-7-7-----|

Guitar 2
E:---------------------------------------------|
B:---------------------------------------------|
G:-7-7-7-7-7-7-7-7-7-7-14-14-14-14-14-14-14-14-|
D:-8-8-8-8-8-8-8-8-8-8--x--x--x--x--x--x--x--x-|
A:-5-5-5-5-5-5-5-5-5-5-12-12-12-12-12-12-12-12-|
D:-5-5-5-5-5-5-5-5-5-5-------------------------|

E:-----------------------------------------------|
B:-----------------------------------------------|
G:-14-14/9-9-9-9-9-9-9-9-9-9-9-9-9-9-9-9-9-9-9-9-|
D:--x--x-x-x-x-x-x-x-x-x-x-x-x-x-x-x-x-x-x-x-x-x-|
A:-12-12/7-7-7-7-7-7-7-7-7-7-7-7-7-7-7-7-7-7-7-7-|
D:-----------------------------------------------|

Riff 11:

Lead:
E:---------------------------------------------|
B:---------------------------------------------|
G:---------------------------------------------|
D:---------------------------------------------|
A:-12-10-5---8h10-10\12-15-10-10h12-10-8-7-----|
D:---------------------------------------------|

Rythym:
E:----------------------------------------------|
B:----------------------------------------------|
G:----------------------------------------------|
D:-7-7-7-7-7-7-7-10-10-10-10-10-10-10-5-5-5-5-5-|
A:-5-5-5-5-5-5-5--8--8--8--8--8--8--8-3-3-3-3-3-|
D:-5-5-5-5-5-5-5--8--8--8--8--8--8--8-3-3-3-3-3-|

E:---------------------------------------------|
B:---------------------------------------------|
G:---------------------------------------------|
D:-5-5-5-5-5-5-5-5-5---------------------------|
A:-3-3-5-5-5-5-5-5-5---------------------------|
D:-3-3-0-0-0-0-0-0-0---------------------------|

Riff 13 (End):
Clean
E:---------------------------------------------|
B:---------------------------------------------|
G:---------------------------------------------|
D:-----7-----7-----10-----10-----5-----5-----5-|
A:---5-----5-----8------8------3-----3-----5---|
D:-5-----5-----8------8------3-----3-----0-----|

E:---------------------------------------------|
B:---------------------------------------------|
G:---------------------------------------------|
D:-----5---------------------------------------|
A:---5-----------------------------------------|
D:-0-------------------------------------------|

With the rythym of riff 12 but clean.
Comments