Opeth - Demon Of The Fall Chords & Tabs

 

Demon Of The Fall Chords & Tabs

Opeth Chords & Tabs

Version: 1 Type: Bass Tab 0 ratings
1 star 2 stars 3 stars 4 stars 5 stars
comments

Demon Of The Fall Bass Tab

                                                   
F||-----------------------------------------------|
C||*----------------------------------------------|
A||*----------------------------------------------|
D||---0--0-0-0-0-7--7-7-7-7-6--6-6-6-6-6--6-6-6-6-|


                                              3x
----------------------------------------------||
---------------------------------------------*||
---------------------------------------------*||
--1--1-1-1-1-0--0-0-0-0-1--1-1-1-1/6--6-6-1---||


                                            
------------------------------------|------|
------------------------------------|------|
------------------------------------|------|
--1--1-1-1-1-0--0-0-x-x-------------|------|


                                                 
|-----------------------------------------------|
|*----------------------------------------------|
|*----------------------------------------------|
|---0--0-0-0-0-0--0-0-0-0-0--0-0-0-0-0--0-0-0-0-|


                                                   
--------------------------------------------------|
--------------------------------------------------|
--------------------------------------------------|
--0-0-0-0-0-0-0-0-0-0-0-0-0-0-0-0-0-0-0-0-0-0-0-0-|


                                                   
--------------------------------------------------|
--------------------------------------------------|
--------------------------------------------------|
--0-0-0-0-0-0-0-0-0-0-0-0-0-0-0-0-0-0-0-0-0-0-0-0-|


                                                  
------------------------------------------------||
-----------------------------------------------*||
-----------------------------------------------*||
--6--6-6-6-6-5--5-5-5-5-0--0-0-0-0-0-0-0-0-0-0--||


                                                     
----------------------------------------------------|
*---------------------------------------------------|
*---------------------------------------------------|
---9--9-9-9-9-11--11-11-11-11-0--0-0-0-0-0--0-0-0-0-|


                                                   
--------------------------------------------------|
--------------------------------------------------|
--------------------------------------------------|
--0-0-0-0-0-0-0-0-0-0-0-0-0-0-0-0-0-0-0-0-0-0-0-0-|


                                                   
--------------------------------------------------|
--------------------------------------------------|
--------------------------------------------------|
--0-0-0-0-0-0-0-0-0-0-0-0-0-0-0-0-0-0-0-0-0-0-0-0-|


                                                  
------------------------------------------------||
-----------------------------------------------*||
-----------------------------------------------*||
--6--6-6-6-6-5--5-5-5-5-0--0-0-0-0-0-0-0-0-0-0--||


                                              
---------------------------------------------|
*--------------------------------------------|
*--------------------------------------------|
---1--1-1-1-1-1-0--0--0-1--1-1-1/-6--6-6-6-0-|


                                             3x
---------------------------------------------||
--------------------------------------------*||
-----------------------5--------------------*||
--1--1-1-1-1-1-0--0--0----0-5--0-3--3-3-3-0--||


                                                            
----------------------------------------|------------------|
----------------------------------------|------------------|
-----------------------5----------------|------------------|
--1--1-1-1-1-1-0--0--0----0-5--0-3------|------------------|


                                                            
|--------------------|------------------|------------------|
|*-------------------|------------------|------------------|
|*--5----------------|------------------|------------------|
|--------------------|------------------|------------------|


                                                                              
---------------------||-------------------||---------------------------------|
--------------------*||-------------------||*--------------------------------|
----------------3-5-*||-------------------||*--5---5-----------------3-5-----|
---------------------||----------------0--||---------0-0-3-0-0-0-0-0-----0-0-|


                                                                  
--------------------------------|--------------------------------|
--------------------------------|--------------------------------|
--5---5-----------------3-5-----|--5---5-----------------3-5-----|
--------0-0-3-0-0-0-0-0-----0-0-|--------0-0-3-0-0-0-0-0-----0-0-|


                                                                    
--------------------------------||---------------------------------|
-------------------------------*||*--------------------------------|
-------------------------------*||*--5---5-----------------3-5-----|
--2/3-3-3/5-5-5/2-2-2/-8-8--0---||---------0-0-3-0-0-0-0-0-----0-0-|


                                                                  
--------------------------------|--------------------------------|
--------------------------------|--------------------------------|
--5---5-----------------3-5-----|--5---5-----------------3-5-----|
--------0-0-3-0-0-0-0-0-----0-0-|--------0-0-3-0-0-0-0-0-----0-0-|

[ Tab from: http://www.guitartabs.cc/tabs/o/opeth/demon_of_the_fall_btab.html ]
                                                                
--------------------------------||-----------------------------|
-------------------------------*||-----------------------------|
-------------------------------*||-----------------------4-5---|
--2/3-3-3/5-5-5/2-2-2/-8-8--0---||---------------------------6-|


                                         
|---------------------------------------|
|*--------------------------------------|
|*-----------5--5--5--5-----------------|
|---0--0--0--------------0--0--6--6--6--|


                                       3x
---------------------------------------||
--------------------------------------*||
--------------------3--5-----5--7--8--*||
--6--6--6--0--6--7--------0------------||


                                        
---------------------------------------|
*--------------------------------------|
*--1--1--1--6--6--6--3--3--3--3--3--3--|
---------------------------------------|


                                                                                
---------------------------------------||--------------------------------------|
--------------------------------------*||-----------------------------7--7--7--|
--1--1--1--6--6--6--7--7--7--7--7--7--*||--1--1--1--6--6--6--3--3--3-----------|
---------------------------------------||--------------------------------------|


                                                                  
--------------------------------|--------------------------------|
--------------------------------|--------------------------------|
--------------------------------|-----------------3----------4/3-|
--6--6--6--6--6--6--------------|--4----------5/4----------------|


                                                                  
--------------------------------|--------------------------------|
--------------------------------|--------------------------------|
-----------------3----------4/3-|-----------------3----------4/3-|
--4----------5/4----------------|--4----------5/4----------------|


                                                                  
--------------------------------|--------------------------------|
--------------------------------|--------------------------------|
-----------------3----------4/3-|-----------------3----------4/3-|
--4----------5/4----------------|--4----------5/4----------------|


                                                                  
--------------------------------|--------------------------------|
--------------------------------|--------------------------------|
-----------------3----------4/3-|-----------------3----------4/3-|
--4----------5/4----------------|--4----------5/4----------------|


                                                                    
------------------------------|------------------------------------|
------------------------------|------------------------------------|
-----------------3------------|--5-4------------5------------------|
--4----------5/4--------------|-------0--0-2-3-----5-6------5------|


                                                                              
--------------------------------------|--------------------------------------|
--------------------------------------|--------------------------------------|
-----------------------------5--5--5--|--------------------------------------|
--5--5--5--5--5--5--0--0--0-----------|--7--7--7--7--7--7--7--7--7--7--7--7--|


                                                                              
--------------------------------------|--------------------------------------|
--------------------------------------|--------------------------------------|
-----------------------------5--5--5--|--------------------------------------|
--5--5--5--5--5--5--0--0--0-----------|--7--7--7--7--7--7--7--7--7--7--7--7--|


                                                                              
--------------------------------------|--------------------------------------|
--------------------------------------|--------------------------------------|
-----------------------------5--5--5--|--------------------------------------|
--5--5--5--5--5--5--0--0--0-----------|--7--7--7--7--7--7--7--7--7--7--7--7--|


                                                                              
--------------------------------------|--------------------------------------|
--------------------------------------|--------------------------------------|
-----------------------------5--5--5--|--------------------------------------|
--5--5--5--5--5--5--0--0--0-----------|--7--7--7--7--7--7--7--7--7--7--7--7--|


                                         
|---------------------------------------|
|*--------------------------------------|
|*--------------------------------------|
|---5--5--5--5--5--5--8--8--8--8--8--8--|


                                         
---------------------------------------||
--------------------------------------*||
--------------------5--5--5--5--5--5--*||
--3--3--3--3--3--3---------------------||


                                        
---------------------------------------|
*--------------------------------------|
*--------------------------------------|
---5--5--5--5--5--5--8--8--8--8--8--8--|


                                       3x                                      
---------------------------------------||------------------|------------------|
--------------------------------------*||------------------|------------------|
--------------------5--5--5--5--5--5--*||------------------|------------------|
--3--3--3--3--3--3---------------------||------------------|------------------|


                                                          
------------------|------------------|------------------||
------------------|------------------|------------------||
------------------|------------------|------------------||
------------------|------------------|------------------||
Comments