Opeth - Deliverance Chords & Tabs

 

Deliverance Chords & Tabs

Opeth Chords & Tabs

Version: 1 Type: Bass Tab 0 ratings
1 star 2 stars 3 stars 4 stars 5 stars
comments

Deliverance Bass Tab

G||----------------------|----------------------|----------------------|
D||----------------------|----------------------|----------------------|
A||--7-----7-----7-------|--7-----7-----7-------|--7-----7-----7-------|
E||-----0-----0-------0--|-----0-----0-------0--|-----0-----0-------0--|


                                                                     
----------------------|----------------------|----------------------|
----------------------|----------------------|----------------------|
--7-----7-----7-------|--7-----7-----7-------|--7-----7-----7-------|
-----0-----0-------0--|-----0-----0-------0--|-----0-----0-------0--|


                                                                     
----------------------|----------------------|----------------------|
----------------------|----------------------|----------------------|
--7-----7-----7-------|--7-----7-----7-------|--7-----7-----7-------|
-----0-----0-------0--|-----0-----0-------0--|-----0-----0-------0--|


                                                                     
----------------------|----------------------|----------------------|
----------------------|----------------------|----------------------|
--7-----7-----7-------|--7-----7-----7-------|--7-----7-----7-------|
-----0-----0-------0--|-----0-----0-------0--|-----0-----0-------0--|


                                                                     
----------------------|----------------------|----------------------|
----------------------|----------------------|----------------------|
--7-----7-----7-------|--7-----7-----7-------|--7-----7-----7-------|
-----0-----0-------0--|-----0-----0-------0--|-----0-----0-------0--|


                                                               
----------------------|-------------------|-------------------|
----------------------|-------------------|-------------------|
--7-----7-----7-------|-------------------|-------------------|
-----0-----0-------0--|--0----0----0------|--0----0----0------|


                                                                              
-------------------|-------------------|------------------|------------------|
-------------------|-------------------|------------------|------------------|
-------------------|-------------------|------------------|------------------|
--0----0----0------|--0----0----0------|------------------|------------------|


                                                                            
------------------------|--------------------------|-----------------------|
------------------------|--------------------------|-----------------------|
------------------------|--------------------------|-----------------------|
--2----2----0--0--2h-0--|--0--2h-0--0--2--0--0--2--|------2----0--0--2h-0--|


                                                                           
--------------------------|-----------------------|-----------------------|
--------------------------|-----------------------|-----------------------|
-----------------------5--|--7----7---------------|----5/-7--7--7----7----|
--0--2h-0--0--2--0--0-----|------------0--0----0--|-----------------------|


                                                                        
---------------------|------------------------|------------------------|
---------------------|------------------------|------------------------|
---------------------|----7----------3--------|------------------------|
--0------------7--6--|-------3--2-------2--0--|--2----2----0--0--2h-0--|


                                                                              
--------------------------|-----------------------|--------------------------|
--------------------------|-----------------------|--------------------------|
--------------------------|-----------------------|-----------------------5--|
--0--2h-0--0--2--0--0--2--|------2----0--0--2h-0--|--0--2h-0--0--2--0--0-----|


                                                                      
-----------------------|-----------------------|---------------------|
-----------------------|-----------------------|---------------------|
--7----7---------------|----5/-7--7--7----7----|---------------------|
------------0--0----0--|-----------------------|--0------------7--6--|


                                                                             
------------------------|------------------------|--------------------------|
------------------------|------------------------|--------------------------|
----7----------3--------|------------------------|--------------------------|
-------3--2-------2--0--|--2----2----0--0--2h-0--|--0--2h-0--0--2--0--0--2--|


                                                                           
-----------------------|--------------------------|-----------------------|
-----------------------|--------------------------|-----------------------|
-----------------------|-----------------------5--|--7----7---------------|
------2----0--0--2h-0--|--0--2h-0--0--2--0--0-----|------------0--0----0--|


                                                                       
-----------------------|---------------------|------------------------|
-----------------------|---------------------|------------------------|
----5/-7--7--7----7----|---------------------|----7----------3--------|
-----------------------|--0------------7--6--|-------3--2-------2--0--|


                                                                            
------------------------|--------------------------|-----------------------|
------------------------|--------------------------|-----------------------|
------------------------|--------------------------|-----------------------|
--2----2----0--0--2h-0--|--0--2h-0--0--2--0--0--2--|------2----0--0--2h-0--|


                                                                           
--------------------------|-----------------------|-----------------------|
--------------------------|-----------------------|-----------------------|
-----------------------5--|--7----7---------------|----5/-7--7--7----7----|
--0--2h-0--0--2--0--0-----|------------0--0----0--|-----------------------|


                                                                         
---------------------|------------------------|-------------------------|
---------------------|------------------------|-------------------------|
---------------------|----7----------3--------|----------2--3-----2--3--|
--0------------7--6--|-------3--2-------2--0--|----0--1--------4--------|


                                                                               
--------------------|-------------------|------------------|------------------|
--2--1--------0--3--|-------------------|------------------|------------------|
--------2--3--------|-------------------|------------------|------------------|
--------------------|--0----------------|------------------|------------------|


                                                                    
----------------|----------------|----------------|----------------|
----------------|----------------|----------------|----------------|
----------------|----------------|----------------|----------------|
----------------|----------------|----------------|----------------|


                                                                       
----------------|----------------|----------------|-------------------|
----------------|----------------|----------------|-------------------|
----------------|----------------|----------------|-----------5----5--|
----------------|----------------|----------------|------7------------|


                                                                      
-----------------|----------------|-----------------|----------------|
-----------------|----------------|-----------------|----------------|
--7--------------|----------------|-----------------|----------------|
-----------------|----------------|--0--------------|----------------|


                                                                    
----------------|----------------|----------------|----------------|
----------------|----------------|----------------|----------------|
----------------|----------------|----------------|----------------|
----------------|----------------|----------------|----------------|


                                                                                
-------------------|-------------------|-------------------|-------------------|
-------------------|-------------------|-------------------|-------------------|
--7--------10------|--7--------10------|--7--------10------|--7--------10------|
-------------------|-------------------|-------------------|-------------------|


                                                                                
-------------------|-------------------|-------------------|-------------------|
-------------------|-------------------|-------------------|-------------------|
--7--------10------|--7--------10------|--7--------10------|--7--------10------|
-------------------|-------------------|-------------------|-------------------|


                                                                                
-------------------|-------------------|-------------------|-------------------|
-------------------|-------------------|-------------------|-------------------|
--7--------10------|--7--------10------|--7--------10------|--7--------10------|
-------------------|-------------------|-------------------|-------------------|


                                                                                
-------------------|-------------------|-------------------|-------------------|
-------------------|-------------------|-------------------|-------------------|
--7--------10------|--7--------10------|--7--------10------|--7--------10------|
-------------------|-------------------|-------------------|-------------------|


                                                                                
-------------------|-------------------|-------------------|-------------------|
-------------------|-------------------|-------------------|-------------------|
--7--------10------|--7--------10------|--7--------10------|--7--------10------|
-------------------|-------------------|-------------------|-------------------|


                                                                                
-------------------|-------------------|-------------------|-------------------|
-------------------|-------------------|-------------------|-------------------|
--7--------10------|--7--------10------|--7--------10------|--7--------10------|
-------------------|-------------------|-------------------|-------------------|


                                                                                
-------------------|-------------------|-------------------|-------------------|
-------------------|-------------------|-------------------|-------------------|
--7--------10------|--7--------10------|--7--------10------|--7--------10------|
-------------------|-------------------|-------------------|-------------------|


                                                                                
-------------------|-------------------|-------------------|-------------------|
-------------------|-------------------|-------------------|-------------------|
--7--------10------|--7--------10------|--7--------10------|--7--------10------|
-------------------|-------------------|-------------------|-------------------|


                                                               
--------------------|--------------------|--------------------|
--------------------|--------------------|--------------------|
--------------------|--------------------|--------------------|
--2----2----2----0--|--2----2----2----0--|--2----2----2----0--|


                                                               
--------------------|--------------------|--------------------|
--------------------|--------------------|--------------------|
--------------------|--------------------|--------------------|
--2----2----2----0--|--2----2----2----0--|--2----2----2----0--|


                                                              
--------------------|--------------------|-------------------|
--------------------|--------------------|-------------------|
--------------------|--------------------|--7--------10------|
--2----2----2----0--|--3----3----3----0--|-------------------|


                                                                                
-------------------|-------------------|-------------------|-------------------|
-------------------|-------------------|-------------------|-------------------|
--7--------10------|--7--------10------|--7--------10------|--7--------10------|
-------------------|-------------------|-------------------|-------------------|


                                                                                
-------------------|-------------------|-------------------|-------------------|
-------------------|-------------------|-------------------|-------------------|
--7--------10------|--7--------10------|--7--------10------|--7--------10------|
-------------------|-------------------|-------------------|-------------------|


                                                                                
-------------------|-------------------|-------------------|-------------------|
-------------------|-------------------|-------------------|-------------------|
--7--------10------|--7--------10------|--7--------10------|--7--------10------|
-------------------|-------------------|-------------------|-------------------|


                                                                                
-------------------|-------------------|-------------------|-------------------|
-------------------|-------------------|-------------------|-------------------|
--7--------10------|--7--------10------|--7--------10------|--7--------10------|
-------------------|-------------------|-------------------|-------------------|


                                                                                
-------------------|-------------------|-------------------|-------------------|
-------------------|-------------------|-------------------|-------------------|
--7--------10------|--7--------10------|--7--------10------|--7--------10------|
-------------------|-------------------|-------------------|-------------------|


                                                                                
-------------------|-------------------|-------------------|-------------------|
-------------------|-------------------|-------------------|-------------------|
--7--------10------|--7--------10------|--7--------10------|--7--------10------|
-------------------|-------------------|-------------------|-------------------|


                                                                                
-------------------|-------------------|-------------------|-------------------|
-------------------|-------------------|-------------------|-------------------|
--7--------10------|--7--------10------|--7--------10------|--7--------10------|
-------------------|-------------------|-------------------|-------------------|


                                                            
-------------------|-------------------|-------------------|
-------------------|-------------------|-------------------|
--7--------10------|--7--------10------|--7--------10------|
-------------------|-------------------|-------------------|


                                                               
--------------------|--------------------|--------------------|
--------------------|--------------------|--------------------|
--------------------|--------------------|--------------------|
--2----2----2----0--|--2----2----2----0--|--2----2----2----0--|


                                                               
--------------------|--------------------|--------------------|
--------------------|--------------------|--------------------|
--------------------|--------------------|--------------------|
--2----2----2----0--|--2----2----2----0--|--2----2----2----0--|


                                                              
--------------------|--------------------|-------------------|
--------------------|--------------------|-------------------|
--------------------|--------------------|-------------------|
--2----2----2----0--|--3----3----3----0--|--0----0----0------|


                                                                                
-------------------|-------------------|-------------------|-------------------|
-------------------|-------------------|-------------------|-------------------|
-------------------|-------------------|-------------------|-------------------|
--0----0----0------|--0----0----0------|--0----0----0------|--0----0----0------|


                                                             
-------------------|-------------------|--------------------|
-------------------|-------------------|--------------------|
-------------------|-------------------|--------------------|
--0----0----0------|--0----0----0------|--0----0------------|


                                                                            
------------------------|--------------------------|-----------------------|
------------------------|--------------------------|-----------------------|
------------------------|--------------------------|-----------------------|
--2----2----0--0--2h-0--|--0--2h-0--0--2--0--0--2--|------2----0--0--2h-0--|


                                                                           
--------------------------|-----------------------|-----------------------|
--------------------------|-----------------------|-----------------------|
-----------------------5--|--7----7---------------|----5/-7--7--7----7----|
--0--2h-0--0--2--0--0-----|------------0--0----0--|-----------------------|


                                                                        
---------------------|------------------------|------------------------|
---------------------|------------------------|------------------------|
---------------------|----7----------3--------|------------------------|
--0------------7--6--|-------3--2-------2--0--|--2----2----0--0--2h-0--|


                                                                              
--------------------------|-----------------------|--------------------------|
--------------------------|-----------------------|--------------------------|
--------------------------|-----------------------|-----------------------5--|
--0--2h-0--0--2--0--0--2--|------2----0--0--2h-0--|--0--2h-0--0--2--0--0-----|


                                                                      
-----------------------|-----------------------|---------------------|
-----------------------|-----------------------|---------------------|
--7----7---------------|----5/-7--7--7----7----|---------------------|
------------0--0----0--|-----------------------|--0------------7--6--|


                                                                             
------------------------|------------------------|--------------------------|
------------------------|------------------------|--------------------------|
----7----------3--------|------------------------|--------------------------|
-------3--2-------2--0--|--2----2----0--0--2h-0--|--0--2h-0--0--2--0--0--2--|


                                                                           
-----------------------|--------------------------|-----------------------|
-----------------------|--------------------------|-----------------------|
-----------------------|-----------------------5--|--7----7---------------|
------2----0--0--2h-0--|--0--2h-0--0--2--0--0-----|------------0--0----0--|


                                                                       
-----------------------|---------------------|------------------------|
-----------------------|---------------------|------------------------|
----5/-7--7--7----7----|---------------------|----7----------3--------|
-----------------------|--0------------7--6--|-------3--2-------2--0--|


                                                                            
------------------------|--------------------------|-----------------------|
------------------------|--------------------------|-----------------------|
------------------------|--------------------------|-----------------------|
--2----2----0--0--2h-0--|--0--2h-0--0--2--0--0--2--|------2----0--0--2h-0--|


                                                                           
--------------------------|-----------------------|-----------------------|
--------------------------|-----------------------|-----------------------|
-----------------------5--|--7----7---------------|----5/-7--7--7----7----|
--0--2h-0--0--2--0--0-----|------------0--0----0--|-----------------------|


                                                                         
---------------------|------------------------|-------------------------|
---------------------|------------------------|-------------------------|
---------------------|----7----------3--------|----------2--3-----2--3--|
--0------------7--6--|-------3--2-------2--0--|----0--1--------4--------|


                                                                             
--------------------|-----------------|--------------------|----------------|
--2--1--------0--3--|-----------------|--------------------|----------------|
--------2--3--------|-----------------|--------------------|----------------|
--------------------|--0--------------|--------------------|----------------|


                                                               
--------------------|--------------------|--------------------|
--------------------|--------------------|--------------------|
--------------------|--------------------|--------------------|
--------------------|--2----2----2----0--|--2----2----2----0--|


                                                               
--------------------|--------------------|--------------------|
--------------------|--------------------|--------------------|
--------------------|--------------------|--------------------|
--0----0----0----0--|--0----0----0----0--|--5----5----5----0--|


                                                               
--------------------|--------------------|--------------------|
--------------------|--------------------|--------------------|
--------------------|--------------------|--------------------|
--5----5----5----0--|--6----6----6----0--|--1----1----1----0--|


                                                               
--------------------|--------------------|--------------------|
--------------------|--------------------|--------------------|
--------------------|--------------------|--------------------|
--2----2----2----0--|--2----2----2----0--|--0----0----0----0--|


                                                               
--------------------|--------------------|--------------------|
--------------------|--------------------|--------------------|
--------------------|--------------------|--------------------|
--0----0----0----0--|--5----5----5----0--|--5----5----5----0--|


                                                               
--------------------|--------------------|--------------------|
--------------------|--------------------|--------------------|
--------------------|--------------------|--------------------|
--6----6----6----0--|--1----1----1----0--|--2----2----2----0--|


                                                               
--------------------|--------------------|--------------------|
--------------------|--------------------|--------------------|
--------------------|--------------------|--------------------|
--2----2----2----0--|--0----0----0----0--|--0----0----0----0--|


                                                               
--------------------|--------------------|--------------------|
--------------------|--------------------|--------------------|
--------------------|--------------------|--------------------|
--5----5----5----0--|--5----5----5----0--|--6----6----6----0--|


                                                               
--------------------|--------------------|--------------------|
--------------------|--------------------|--------------------|
--------------------|--------------------|--------------------|
--1----1----1----0--|--2----2----2----0--|--2----2----2----0--|


                                                               
--------------------|--------------------|--------------------|
--------------------|--------------------|--------------------|
--------------------|--------------------|--------------------|
--0----0----0----0--|--0----0----0----0--|--5----5----5----0--|


                                                               
--------------------|--------------------|--------------------|
--------------------|--------------------|--------------------|
--------------------|--------------------|--------------------|
--5----5----5----0--|--6----6----6----0--|--1----1----1----0--|


                                                    
-----------------|----------------|----------------|
-----------------|----------------|----------------|
-----------------|----------------|----------------|
--0--------------|----------------|----------------|


                                                                             
-------------------------------|-----------------------|--------------------|
-------------------7-----------|-----------------------|--------------------|
-----7----7-----9-----9--7--9--|--2------2--2--2--0----|----------0----0----|
--0----------0-----------------|-----------------------|--------------------|


                                                                    
-----------------------|--------------------|----------------------|
-----------------------|--------------------|----------------------|
--2------2--2--2--0----|----------0----0----|--5----5--5------3----|
-----------------------|--------------------|----------------------|


                                                                         
-----------------------|---------------------|--------------------------|
-----------------------|---------------------|--------------------------|
--3--3------2----2--2--|------1----1--1------|--1----1--1--0h1-0-----0--|
-----------------------|---------------------|--------------------2-----|


                                                                     
-----------------------|--------------------|-----------------------|
-----------------------|--------------------|-----------------------|
--2------2--2--2--0----|----------0----0----|--2------2--2--2--0----|
-----------------------|--------------------|-----------------------|


                                                                    
--------------------|----------------------|-----------------------|
--------------------|----------------------|-----------------------|
----------0----0----|--5----5--5------3----|--3--3------2----2--2--|
--------------------|----------------------|-----------------------|


                                                                         
---------------------|--------------------------|-----------------------|
---------------------|--------------------------|-----------------------|
------1----1--1------|--1----1--1--0h1-0-----0--|--2------2--2--2--0----|
---------------------|--------------------2-----|-----------------------|


                                                                  
--------------------|-----------------------|--------------------|
--------------------|-----------------------|--------------------|
----------0----0----|--2------2--2--2--0----|----------0----0----|
--------------------|-----------------------|--------------------|


                                                                     
----------------------|-----------------------|---------------------|
----------------------|-----------------------|---------------------|
--5----5--5------3----|--3--3------2----2--2--|------1----1--1------|
----------------------|-----------------------|---------------------|


                                                                        
--------------------------|-----------------------|--------------------|
--------------------------|-----------------------|--------------------|
--1----1--1--0h1-0-----0--|--2------2--2--2--0----|----------0----0----|
--------------------2-----|-----------------------|--------------------|


                                                                    
-----------------------|--------------------|----------------------|
-----------------------|--------------------|----------------------|
--2------2--2--2--0----|----------0----0----|--5----5--5------3----|
-----------------------|--------------------|----------------------|


                                                                         
-----------------------|---------------------|--------------------------|
-----------------------|---------------------|--------------------------|
--3--3------2----2--2--|------1----1--1------|--1----1--1--0h1-0-----0--|
-----------------------|---------------------|--------------------2-----|


                                                                     
-----------------------|--------------------|-----------------------|
-----------------------|--------------------|-----------------------|
--2------2--2--2--0----|----------0----0----|--2------2--2--2--0----|
-----------------------|--------------------|-----------------------|


                                                                    
--------------------|----------------------|-----------------------|
--------------------|----------------------|-----------------------|
----------0----0----|--5----5--5------3----|--3--3------2----2--2--|
--------------------|----------------------|-----------------------|


                                                                         
---------------------|--------------------------|-----------------------|
---------------------|--------------------------|-----------------------|
------1----1--1------|--1----1--1--0h1-0-----0--|--2------2--2--2--0----|
---------------------|--------------------2-----|-----------------------|


                                                                  
--------------------|-----------------------|--------------------|
--------------------|-----------------------|--------------------|
----------0----0----|--2------2--2--2--0----|----------0----0----|
--------------------|-----------------------|--------------------|


                                                                     
----------------------|-----------------------|---------------------|
----------------------|-----------------------|---------------------|
--5----5--5------3----|--3--3------2----2--2--|------1----1--1------|
----------------------|-----------------------|---------------------|


                                                      
--------------------------|--------------------------|
--------------------------|--------------------------|
--1----1--1--0h1-0-----0--|--------------------------|
--------------------2-----|--2--2--2--0--0--0--3--3--|


                                                      
--------------------------|--------------------------|
--------------------------|--------------------------|
--------------------------|--------------------------|
--3--3--3--3--3--3--3--3--|--2--2--2--0--0--0--3--3--|


                                                      
--------------------------|--------------------------|
--------------------------|--------------------------|
--------------------------|--------------------------|
--3--3--3--3--3--3--3--3--|--2--2--2--0--0--0--3--3--|


                                                      
--------------------------|--------------------------|
--------------------------|--------------------------|
--------------------------|--------------------------|
--3--3--3--3--3--3--3--3--|--6--6--6--6--6--6--4--4--|


                                                      
--------------------------|--------------------------|
--------------------------|--------------------------|
--------------------------|--------------------------|
--4--4--4--4--4--4--4--4--|--2--2--2--0--0--0--3--3--|


                                                      
--------------------------|--------------------------|
--------------------------|--------------------------|
--------------------------|--------------------------|
--3--3--3--3--3--3--3--3--|--2--2--2--0--0--0--3--3--|


                                                      
--------------------------|--------------------------|
--------------------------|--------------------------|
--------------------------|--------------------------|
--3--3--3--3--3--3--3--3--|--2--2--2--0--0--0--3--3--|


                                                      
--------------------------|--------------------------|
--------------------------|--------------------------|
--------------------------|--------------------------|
--3--3--3--3--3--3--3--3--|--6--6--6--6--6--6--4--4--|


                                                      
--------------------------|--------------------------|
--------------------------|--------------------------|
--------------------------|--------------------------|
--4--4--4--4--4--4--4--4--|--2--2--2--0--0--0--3--3--|


                                                      
--------------------------|--------------------------|
--------------------------|--------------------------|
--------------------------|--------------------------|
--3--3--3--3--3--3--3--3--|--2--2--2--0--0--0--3--3--|


                                                      
--------------------------|--------------------------|
--------------------------|--------------------------|
--------------------------|--------------------------|
--3--3--3--3--3--3--3--3--|--2--2--2--0--0--0--3--3--|


                                                      
--------------------------|--------------------------|
--------------------------|--------------------------|
--------------------------|--------------------------|
--3--3--3--3--3--3--3--3--|--6--6--6--6--6--6--4--4--|


                                                      
--------------------------|--------------------------|
--------------------------|--------------------------|
--------------------------|--------------------------|
--4--4--4--4--4--4--4--4--|--2--2--2--0--0--0--3--3--|


                                                      
--------------------------|--------------------------|
--------------------------|--------------------------|
--------------------------|--------------------------|
--3--3--3--3--3--3--3--3--|--2--2--2--0--0--0--3--3--|


                                                      
--------------------------|--------------------------|
--------------------------|--------------------------|
--------------------------|--------------------------|
--3--3--3--3--3--3--3--3--|--2--2--2--0--0--0--3--3--|


                                                      
--------------------------|--------------------------|
--------------------------|--------------------------|
--------------------------|--------------------------|
--3--3--3--3--3--3--3--3--|--6--6--6--6--6--6--4--4--|


                                                                        
--------------------------|-----------------------|--------------------|
--------------------------|-----------------------|--------------------|
--------------------------|--2------2--2--2--0----|----------0----0----|
--4--4--4--4--4--4--4--4--|-----------------------|--------------------|


                                                                    
-----------------------|--------------------|----------------------|
-----------------------|--------------------|----------------------|
--2------2--2--2--0----|----------0----0----|--5----5--5------3----|
-----------------------|--------------------|----------------------|


                                                                         
-----------------------|---------------------|--------------------------|
-----------------------|---------------------|--------------------------|
--3--3------2----2--2--|------1----1--1------|--1----1--1--0h1-0-----0--|
-----------------------|---------------------|--------------------2-----|


                                                                     
-----------------------|--------------------|-----------------------|
-----------------------|--------------------|-----------------------|
--2------2--2--2--0----|----------0----0----|--2------2--2--2--0----|
-----------------------|--------------------|-----------------------|


                                                                    
--------------------|----------------------|-----------------------|
--------------------|----------------------|-----------------------|
----------0----0----|--5----5--5------3----|--3--3------2----2--2--|
--------------------|----------------------|-----------------------|


                                                                         
---------------------|--------------------------|-----------------------|
---------------------|--------------------------|-----------------------|
------1----1--1------|--1----1--1--0h1-0-----0--|--2------2--2--2--0----|
---------------------|--------------------2-----|-----------------------|


                                                                  
--------------------|-----------------------|--------------------|
--------------------|-----------------------|--------------------|
----------0----0----|--2------2--2--2--0----|----------0----0----|
--------------------|-----------------------|--------------------|


                                                                     
----------------------|-----------------------|---------------------|
----------------------|-----------------------|---------------------|
--5----5--5------3----|--3--3------2----2--2--|------1----1--1------|
----------------------|-----------------------|---------------------|


                                                                        
--------------------------|-----------------------|--------------------|
--------------------------|-----------------------|--------------------|
--1----1--1--0h1-0-----0--|--2------2--2--2--0----|----------0----0----|
--------------------2-----|-----------------------|--------------------|


                                                                    
-----------------------|--------------------|----------------------|
-----------------------|--------------------|----------------------|
--2------2--2--2--0----|----------0----0----|--5----5--5------3----|
-----------------------|--------------------|----------------------|


                                                                         
-----------------------|---------------------|--------------------------|
-----------------------|---------------------|--------------------------|
--3--3------2----2--2--|------1----1--1------|--1----1--1--0h1-0-----0--|
-----------------------|---------------------|--------------------2-----|


                                                      
--------------------------|--------------------------|
--------------------------|--------------------------|
--------------------------|--------------------------|
--2--2--2--0--0--0--3--3--|--3--3--3--3--3--3--3--3--|


                                                      
--------------------------|--------------------------|
--------------------------|--------------------------|
--------------------------|--------------------------|
--2--2--2--0--0--0--3--3--|--3--3--3--3--3--3--3--3--|

[ Tab from: http://www.guitartabs.cc/tabs/o/opeth/deliverance_btab.html ]
                                                      
--------------------------|--------------------------|
--------------------------|--------------------------|
--------------------------|--------------------------|
--2--2--2--0--0--0--3--3--|--3--3--3--3--3--3--3--3--|


                                                      
--------------------------|--------------------------|
--------------------------|--------------------------|
--------------------------|--------------------------|
--6--6--6--6--6--6--4--4--|--4--4--4--4--4--4--4--4--|


                                                      
--------------------------|--------------------------|
--------------------------|--------------------------|
--------------------------|--------------------------|
--2--2--2--0--0--0--3--3--|--3--3--3--3--3--3--3--3--|


                                                      
--------------------------|--------------------------|
--------------------------|--------------------------|
--------------------------|--------------------------|
--2--2--2--0--0--0--3--3--|--3--3--3--3--3--3--3--3--|


                                                      
--------------------------|--------------------------|
--------------------------|--------------------------|
--------------------------|--------------------------|
--2--2--2--0--0--0--3--3--|--3--3--3--3--3--3--3--3--|


                                                      
--------------------------|--------------------------|
--------------------------|--------------------------|
--------------------------|--------------------------|
--6--6--6--6--6--6--4--4--|--4--4--4--4--4--4--4--4--|


                                                      
--------------------------|--------------------------|
--------------------------|--------------------------|
--------------------------|--------------------------|
--2--2--2--0--0--0--3--3--|--3--3--3--3--3--3--3--3--|


                                                      
--------------------------|--------------------------|
--------------------------|--------------------------|
--------------------------|--------------------------|
--2--2--2--0--0--0--3--3--|--3--3--3--3--3--3--3--3--|


                                                      
--------------------------|--------------------------|
--------------------------|--------------------------|
--------------------------|--------------------------|
--2--2--2--0--0--0--3--3--|--3--3--3--3--3--3--3--3--|


                                                      
--------------------------|--------------------------|
--------------------------|--------------------------|
--------------------------|--------------------------|
--6--6--6--6--6--6--4--4--|--4--4--4--4--4--4--4--4--|


                                                      
--------------------------|--------------------------|
--------------------------|--------------------------|
--------------------------|--------------------------|
--2--2--2--0--0--0--3--3--|--3--3--3--3--3--3--3--3--|


                                                      
--------------------------|--------------------------|
--------------------------|--------------------------|
--------------------------|--------------------------|
--2--2--2--0--0--0--3--3--|--3--3--3--3--3--3--3--3--|


                                                      
--------------------------|--------------------------|
--------------------------|--------------------------|
--------------------------|--------------------------|
--2--2--2--0--0--0--3--3--|--3--3--3--3--3--3--3--3--|


                                                                      
--------------------------|-----------------------|------------------|
--------------------------|-----------------------|------------------|
--------------------------|-----------------------|------------------|
--6--6--6--6--6--6--4--4--|--4--4--4--4----4------|------------------|


                                                      
--------------------------|--------------------------|
--------------------------|--------------------------|
--------------------------|--------------------------|
--0--0--0--0--0--0--0--0--|--0--0--0--0--0--0--0--0--|


                                                         
--------------------------|-----------------------------|
--------------------------|-----------------------0h-2--|
--------------------------|-----------------0h-2--------|
--0--0--0--0--0--0--0--0--|--0--0--0h-5h-7--------------|


                                                      
--------------------------|--------------------------|
--------------------------|--------------------------|
--------------------------|--------------------------|
--0--0--0--0--0--0--0--0--|--0--0--0--0--0--0--0--0--|


                                                         
--------------------------|-----------------------------|
--------------------------|-----------------------0h-2--|
--------------------------|-----------------0h-2--------|
--0--0--0--0--0--0--0--0--|--0--0--0h-5h-7--------------|


                                                      
--------------------------|--------------------------|
--------------------------|--------------------------|
--------------------------|--------------------------|
--0--0--0--0--0--0--0--0--|--0--0--0--0--0--0--0--0--|


                                                         
--------------------------|-----------------------------|
--------------------------|-----------------------0h-2--|
--------------------------|-----------------0h-2--------|
--0--0--0--0--0--0--0--0--|--0--0--0h-5h-7--------------|


                                                      
--------------------------|--------------------------|
--------------------------|--------------------------|
--------------------------|--------------------------|
--0--0--0--0--0--0--0--0--|--0--0--0--0--0--0--0--0--|


                                                         
--------------------------|-----------------------------|
--------------------------|-----------------------0h-2--|
--------------------------|-----------------0h-2--------|
--0--0--0--0--0--0--0--0--|--0--0--0h-5h-7--------------|


                                                      
--------------------------|--------------------------|
--------------------------|--------------------------|
--------------------------|--------------------------|
--0--0--0--0--0--0--0--0--|--0--0--0--0--0--0--0--0--|


                                                         
--------------------------|-----------------------------|
--------------------------|-----------------------0h-2--|
--------------------------|-----------------0h-2--------|
--0--0--0--0--0--0--0--0--|--0--0--0h-5h-7--------------|


                                                      
--------------------------|--------------------------|
--------------------------|--------------------------|
--------------------------|--------------------------|
--0--0--0--0--0--0--0--0--|--0--0--0--0--0--0--0--0--|


                                                         
--------------------------|-----------------------------|
--------------------------|-----------------------0h-2--|
--------------------------|-----------------0h-2--------|
--0--0--0--0--0--0--0--0--|--0--0--0h-5h-7--------------|


                                                      
--------------------------|--------------------------|
--------------------------|--------------------------|
--------------------------|--------------------------|
--0--0--0--0--0--0--0--0--|--0--0--0--0--0--0--0--0--|


                                                         
--------------------------|-----------------------------|
--------------------------|-----------------------0h-2--|
--------------------------|-----------------0h-2--------|
--0--0--0--0--0--0--0--0--|--0--0--0h-5h-7--------------|


                                                      
--------------------------|--------------------------|
--------------------------|--------------------------|
--------------------------|--------------------------|
--0--0--0--0--0--0--0--0--|--0--0--0--0--0--0--0--0--|


                                                         
--------------------------|-----------------------------|
--------------------------|-----------------------0h-2--|
--------------------------|-----------------0h-2--------|
--0--0--0--0--0--0--0--0--|--0--0--0h-5h-7--------------|


                                                      
--------------------------|--------------------------|
--------------------------|--------------------------|
--------------------------|--------------------------|
--0--0--0--0--0--0--0--0--|--0--0--0--0--0--0--0--0--|


                                                         
--------------------------|-----------------------------|
--------------------------|-----------------------0h-2--|
--------------------------|-----------------0h-2--------|
--0--0--0--0--0--0--0--0--|--0--0--0h-5h-7--------------|


                                                      
--------------------------|--------------------------|
--------------------------|--------------------------|
--------------------------|--------------------------|
--0--0--0--0--0--0--0--0--|--0--0--0--0--0--0--0--0--|


                                                         
--------------------------|-----------------------------|
--------------------------|-----------------------0h-2--|
--------------------------|-----------------0h-2--------|
--0--0--0--0--0--0--0--0--|--0--0--0h-5h-7--------------|


                                                      
--------------------------|--------------------------|
--------------------------|--------------------------|
--------------------------|--------------------------|
--0--0--0--0--0--0--0--0--|--0--0--0--0--0--0--0--0--|


                                                         
--------------------------|-----------------------------|
--------------------------|-----------------------0h-2--|
--------------------------|-----------------0h-2--------|
--0--0--0--0--0--0--0--0--|--0--0--0h-5h-7--------------|


                                                      
--------------------------|--------------------------|
--------------------------|--------------------------|
--------------------------|--------------------------|
--0--0--0--0--0--0--0--0--|--0--0--0--0--0--0--0--0--|


                                                                             
--------------------------|-----------------------------|-------------------|
--------------------------|-----------------------0h-2--|-------------------|
--------------------------|-----------------0h-2--------|-------------------|
--0--0--0--0--0--0--0--0--|--0--0--0h-5h-7--------------|--0----------------|


                                                                              
------------------|------------------|------------------|--------------------|
------------------|------------------|------------------|--------------------|
------------------|------------------|------------------|--------------------|
------------------|------------------|------------------|--0------------0----|


                                                                 
---------------------|--------------------|---------------------|
---------------------|--------------------|---------------------|
----------------5----|--4------------3----|----------3----------|
----2------3---------|--------------------|---------------3--2--|


                                                                
--------------------|---------------------|--------------------|
--------------------|---------------------|--------------------|
--------------------|---------------------|--------------------|
--0------------0----|----2------3----5----|--6------------6----|


                                                              
------------------|--------------------|---------------------|
------------------|--------------------|---------------------|
------------------|--------------------|----------------5----|
------------------|--0------------0----|----2------3---------|


                                                                
--------------------|---------------------|--------------------|
--------------------|---------------------|--------------------|
--4------------3----|----------3----------|--------------------|
--------------------|---------------3--2--|--0------------0----|


                                                              
---------------------|--------------------|------------------|
---------------------|--------------------|------------------|
---------------------|--------------------|------------------|
----2------3----5----|--6------------6----|------------------|


                                                                
--------------------|---------------------|--------------------|
--------------------|---------------------|--------------------|
--------------------|----------------5----|--4------------3----|
--0------------0----|----2------3---------|--------------------|


                                                                 
---------------------|--------------------|---------------------|
---------------------|--------------------|---------------------|
----------3----------|--------------------|---------------------|
---------------3--2--|--0------------0----|----2------3----5----|


                                                             
--------------------|------------------|--------------------|
--------------------|------------------|--------------------|
--------------------|------------------|--------------------|
--6------------6----|------------------|--0------------0----|


                                                                 
---------------------|--------------------|---------------------|
---------------------|--------------------|---------------------|
----------------5----|--4------------3----|----------3----------|
----2------3---------|--------------------|---------------3--2--|


                                                                
--------------------|---------------------|--------------------|
--------------------|---------------------|--------------------|
--------------------|---------------------|--------------------|
--0------------0----|----2------3----5----|--6------------6----|


                                                              
------------------|--------------------|---------------------|
------------------|--------------------|---------------------|
------------------|--------------------|----------------5----|
------------------|--0------------0----|----2------3---------|


                                                                
--------------------|---------------------|--------------------|
--------------------|---------------------|--------------------|
--4------------3----|----------3----------|--------------------|
--------------------|---------------3--2--|--0------------0----|


                                                              
---------------------|--------------------|------------------|
---------------------|--------------------|------------------|
---------------------|--------------------|------------------|
----2------3----5----|--6------------6----|------------------|


                                                                
--------------------|---------------------|--------------------|
--------------------|---------------------|--------------------|
--------------------|----------------5----|--4------------3----|
--0------------0----|----2------3---------|--------------------|


                                                                 
---------------------|--------------------|---------------------|
---------------------|--------------------|---------------------|
----------3----------|--------------------|---------------------|
---------------3--2--|--0------------0----|----2------3----5----|


                                                                               
--------------------|------------------|-------------------|------------------|
--------------------|------------------|-------------------|------------------|
--------------------|------------------|-------------------|------------------|
--6------------6----|------------------|--0----------------|------------------|


                                                                            
------------------|------------------|------------------|------------------|
------------------|------------------|------------------|------------------|
------------------|------------------|------------------|------------------|
------------------|------------------|------------------|------------------|


                                                                            
------------------|------------------|------------------|------------------|
------------------|------------------|------------------|------------------|
------------------|------------------|------------------|------------------|
------------------|------------------|------------------|------------------|


                                                                            
------------------|------------------|------------------|------------------|
------------------|------------------|------------------|------------------|
------------------|------------------|------------------|------------------|
------------------|------------------|------------------|------------------|


                                                             
------------------|------------------|----------------------|
------------------|------------------|----------------------|
------------------|------------------|----------------------|
------------------|------------------|----0--0--0--0--------|


                                                                        
-----------------------|-----------------------|-----------------------|
-----------------------|-----------------------|-----------------------|
-----------------------|-----------------------|-----------------------|
----0--0--0--0--0------|----0--0--0--0------0--|----0--0--0--0--0------|


                                                                           
------------------------|------------------------|------------------------|
------------------------|------------------------|------------------------|
------------------------|------------------------|------------------------|
--0--0--0--0--0------0--|----0--0--0----0--0--0--|----0--0--0----0--0--0--|


                                                                        
------------------------|----------------------|-----------------------|
------------------------|----------------------|-----------------------|
------------------------|----------------------|-----------------------|
----0--0--0--0--0--0----|----0--0--0--0--------|----0--0--0--0--0------|


                                                                         
-----------------------|-----------------------|------------------------|
-----------------------|-----------------------|------------------------|
-----------------------|-----------------------|------------------------|
----0--0--0--0------0--|----0--0--0--0--0------|--0--0--0--0--0------0--|


                                                                           
------------------------|------------------------|------------------------|
------------------------|------------------------|------------------------|
------------------------|------------------------|------------------------|
----0--0--0----0--0--0--|----0--0--0----0--0--0--|----0--0--0--0--0--0----|


                                                                       
----------------------|-----------------------|-----------------------|
----------------------|-----------------------|-----------------------|
----------------------|-----------------------|-----------------------|
----0--0--0--0--------|----0--0--0--0--0------|----0--0--0--0------0--|


                                                                          
-----------------------|------------------------|------------------------|
-----------------------|------------------------|------------------------|
-----------------------|------------------------|------------------------|
----0--0--0--0--0------|--0--0--0--0--0------0--|----0--0--0----0--0--0--|


                                                                         
------------------------|------------------------|----------------------|
------------------------|------------------------|----------------------|
------------------------|------------------------|----------------------|
----0--0--0----0--0--0--|----0--0--0--0--0--0----|----0--0--0--0--------|


                                                                        
-----------------------|-----------------------|-----------------------|
-----------------------|-----------------------|-----------------------|
-----------------------|-----------------------|-----------------------|
----0--0--0--0--0------|----0--0--0--0------0--|----0--0--0--0--0------|


                                                                           
------------------------|------------------------|------------------------|
------------------------|------------------------|------------------------|
------------------------|------------------------|------------------------|
--0--0--0--0--0------0--|----0--0--0----0--0--0--|----0--0--0----0--0--0--|


                                                                               
------------------------|--------------------------|--------------------------|
------------------------|--------------------------|--------------------------|
------------------------|--7--7--7--7--7--7--7--7--|--7--7--7--7--7--7--7--7--|
----0--0--0--0--0--0----|--------------------------|--------------------------|


                                                      
--------------------------|--------------------------|
--------------------------|--------------------------|
--7--7--7--7--7--7--7--7--|--7--7--7--7--7--7--7--7--|
--------------------------|--------------------------|


                                                      
--------------------------|--------------------------|
--------------------------|--------------------------|
--7--7--7--7--7--7--7--7--|--7--7--7--7--7--7--7--7--|
--------------------------|--------------------------|


                                                      
--------------------------|--------------------------|
--------------------------|--------------------------|
--7--7--7--7--7--7--7--7--|--7--7--7--7--------------|
--------------------------|--------------6--6--6--6--|


                                                      
--------------------------|--------------------------|
--------------------------|--------------------------|
--------------------------|--------------------------|
--0--0--0--0--0--0--0--0--|--0--0--0--0--0--0--0--0--|


                                                      
--------------------------|--------------------------|
--------------------------|--------------------------|
--------------------------|--------------------------|
--0--0--0--0--0--0--0--0--|--0--0--0--0--0--0--0--0--|


                                                      
--------------------------|--------------------------|
--------------------------|--------------------------|
--7--7--7--7--7--7--7--7--|--7--7--7--7--7--7--7--7--|
--------------------------|--------------------------|


                                                                             
--------------------------|--------------------------|----------------------|
--------------------------|--------------------------|----------------------|
--7--7--7--7--7--7--7--7--|--7--7--7--7--7--7--7--7--|----------------------|
--------------------------|--------------------------|----0--0--0--0--------|


                                                                        
-----------------------|-----------------------|-----------------------|
-----------------------|-----------------------|-----------------------|
-----------------------|-----------------------|-----------------------|
----0--0--0--0--0------|----0--0--0--0------0--|----0--0--0--0--0------|


                                                                           
------------------------|------------------------|------------------------|
------------------------|------------------------|------------------------|
------------------------|------------------------|------------------------|
--0--0--0--0--0------0--|----0--0--0----0--0--0--|----0--0--0----0--0--0--|


                                                                        
------------------------|----------------------|-----------------------|
------------------------|----------------------|-----------------------|
------------------------|----------------------|-----------------------|
----0--0--0--0--0--0----|----0--0--0--0--------|----0--0--0--0--0------|


                                                                         
-----------------------|-----------------------|------------------------|
-----------------------|-----------------------|------------------------|
-----------------------|-----------------------|------------------------|
----0--0--0--0------0--|----0--0--0--0--0------|--0--0--0--0--0------0--|


                                                                           
------------------------|------------------------|------------------------|
------------------------|------------------------|------------------------|
------------------------|------------------------|------------------------|
----0--0--0----0--0--0--|----0--0--0----0--0--0--|----0--0--0--0--0--0----|


                                                                       
----------------------|-----------------------|-----------------------|
----------------------|-----------------------|-----------------------|
----------------------|-----------------------|-----------------------|
----0--0--0--0--------|----0--0--0--0--0------|----0--0--0--0------0--|


                                                                          
-----------------------|------------------------|------------------------|
-----------------------|------------------------|------------------------|
-----------------------|------------------------|------------------------|
----0--0--0--0--0------|--0--0--0--0--0------0--|----0--0--0----0--0--0--|


                                                                         
------------------------|------------------------|----------------------|
------------------------|------------------------|----------------------|
------------------------|------------------------|----------------------|
----0--0--0----0--0--0--|----0--0--0--0--0--0----|----0--0--0--0--------|


                                                                        
-----------------------|-----------------------|-----------------------|
-----------------------|-----------------------|-----------------------|
-----------------------|-----------------------|-----------------------|
----0--0--0--0--0------|----0--0--0--0------0--|----0--0--0--0--0------|


                                                                           
------------------------|------------------------|------------------------|
------------------------|------------------------|------------------------|
------------------------|------------------------|------------------------|
--0--0--0--0--0------0--|----0--0--0----0--0--0--|----0--0--0----0--0--0--|


                                                                               
------------------------|--------------------------|--------------------------|
------------------------|--------------------------|--------------------------|
------------------------|--7--7--7--7--7--7--7--7--|--7--7--7--7--7--7--7--7--|
----0--0--0--0--0--0----|--------------------------|--------------------------|


                                                      
--------------------------|--------------------------|
--------------------------|--------------------------|
--7--7--7--7--7--7--7--7--|--7--7--7--7--7--7--7--7--|
--------------------------|--------------------------|


                                                      
--------------------------|--------------------------|
--------------------------|--------------------------|
--7--7--7--7--7--7--7--7--|--7--7--7--7--7--7--7--7--|
--------------------------|--------------------------|


                                                      
--------------------------|--------------------------|
--------------------------|--------------------------|
--7--7--7--7--7--7--7--7--|--7--7--7--7--------------|
--------------------------|--------------6--6--6--6--|


                                                      
--------------------------|--------------------------|
--------------------------|--------------------------|
--------------------------|--------------------------|
--0--0--0--0--0--0--0--0--|--0--0--0--0--0--0--0--0--|


                                                      
--------------------------|--------------------------|
--------------------------|--------------------------|
--------------------------|--------------------------|
--0--0--0--0--0--0--0--0--|--0--0--0--0--0--0--0--0--|


                                                      
--------------------------|--------------------------|
--------------------------|--------------------------|
--7--7--7--7--7--7--7--7--|--7--7--7--7--7--7--7--7--|
--------------------------|--------------------------|


                                                                             
--------------------------|--------------------------|----------------------|
--------------------------|--------------------------|----------------------|
--7--7--7--7--7--7--7--7--|--7--7--7--7--7--7--7--7--|----------------------|
--------------------------|--------------------------|----0--0--0--0--------|


                                                                        
-----------------------|-----------------------|-----------------------|
-----------------------|-----------------------|-----------------------|
-----------------------|-----------------------|-----------------------|
----0--0--0--0--0------|----0--0--0--0------0--|----0--0--0--0--0------|


                                                                           
------------------------|------------------------|------------------------|
------------------------|------------------------|------------------------|
------------------------|------------------------|------------------------|
--0--0--0--0--0------0--|----0--0--0----0--0--0--|----0--0--0----0--0--0--|


                                                                        
------------------------|----------------------|-----------------------|
------------------------|----------------------|-----------------------|
------------------------|----------------------|-----------------------|
----0--0--0--0--0--0----|----0--0--0--0--------|----0--0--0--0--0------|


                                                                         
-----------------------|-----------------------|------------------------|
-----------------------|-----------------------|------------------------|
-----------------------|-----------------------|------------------------|
----0--0--0--0------0--|----0--0--0--0--0------|--0--0--0--0--0------0--|


                                                                           
------------------------|------------------------|------------------------|
------------------------|------------------------|------------------------|
------------------------|------------------------|------------------------|
----0--0--0----0--0--0--|----0--0--0----0--0--0--|----0--0--0--0--0--0----|


                                                                       
----------------------|-----------------------|-----------------------|
----------------------|-----------------------|-----------------------|
----------------------|-----------------------|-----------------------|
----0--0--0--0--------|----0--0--0--0--0------|----0--0--0--0------0--|


                                                                          
-----------------------|------------------------|------------------------|
-----------------------|------------------------|------------------------|
-----------------------|------------------------|------------------------|
----0--0--0--0--0------|--0--0--0--0--0------0--|----0--0--0----0--0--0--|


                                                                         
------------------------|------------------------|----------------------|
------------------------|------------------------|----------------------|
------------------------|------------------------|----------------------|
----0--0--0----0--0--0--|----0--0--0--0--0--0----|----0--0--0--0--------|


                                                                        
-----------------------|-----------------------|-----------------------|
-----------------------|-----------------------|-----------------------|
-----------------------|-----------------------|-----------------------|
----0--0--0--0--0------|----0--0--0--0------0--|----0--0--0--0--0------|


                                                                           
------------------------|------------------------|------------------------|
------------------------|------------------------|------------------------|
------------------------|------------------------|------------------------|
--0--0--0--0--0------0--|----0--0--0----0--0--0--|----0--0--0----0--0--0--|


                                                                               
------------------------|--------------------------|--------------------------|
------------------------|--------------------------|--------------------------|
------------------------|--7--7--7--7--7--7--7--7--|--7--7--7--7--7--7--7--7--|
----0--0--0--0--0--0----|--------------------------|--------------------------|


                                                      
--------------------------|--------------------------|
--------------------------|--------------------------|
--7--7--7--7--7--7--7--7--|--7--7--7--7--7--7--7--7--|
--------------------------|--------------------------|


                                                      
--------------------------|--------------------------|
--------------------------|--------------------------|
--7--7--7--7--7--7--7--7--|--7--7--7--7--7--7--7--7--|
--------------------------|--------------------------|


                                                      
--------------------------|--------------------------|
--------------------------|--------------------------|
--7--7--7--7--7--7--7--7--|--7--7--7--7--------------|
--------------------------|--------------6--6--6--6--|


                                                      
--------------------------|--------------------------|
--------------------------|--------------------------|
--------------------------|--------------------------|
--0--0--0--0--0--0--0--0--|--0--0--0--0--0--0--0--0--|


                                                      
--------------------------|--------------------------|
--------------------------|--------------------------|
--------------------------|--------------------------|
--0--0--0--0--0--0--0--0--|--0--0--0--0--0--0--0--0--|


                                                      
--------------------------|--------------------------|
--------------------------|--------------------------|
--7--7--7--7--7--7--7--7--|--7--7--7--7--7--7--7--7--|
--------------------------|--------------------------|


                                                                             
--------------------------|--------------------------|----------------------|
--------------------------|--------------------------|----------------------|
--7--7--7--7--7--7--7--7--|--7--7--7--7--7--7--7--7--|----------------------|
--------------------------|--------------------------|----0--0--0--0--------|


                                                                        
-----------------------|-----------------------|-----------------------|
-----------------------|-----------------------|-----------------------|
-----------------------|-----------------------|-----------------------|
----0--0--0--0--0------|----0--0--0--0------0--|----0--0--0--0--0------|


                                                                           
------------------------|------------------------|------------------------|
------------------------|------------------------|------------------------|
------------------------|------------------------|------------------------|
--0--0--0--0--0------0--|----0--0--0----0--0--0--|----0--0--0----0--0--0--|


                                                                        
------------------------|----------------------|-----------------------|
------------------------|----------------------|-----------------------|
------------------------|----------------------|-----------------------|
----0--0--0--0--0--0----|----0--0--0--0--------|----0--0--0--0--0------|


                                                                         
-----------------------|-----------------------|------------------------|
-----------------------|-----------------------|------------------------|
-----------------------|-----------------------|------------------------|
----0--0--0--0------0--|----0--0--0--0--0------|--0--0--0--0--0------0--|


                                                                           
------------------------|------------------------|------------------------|
------------------------|------------------------|------------------------|
------------------------|------------------------|------------------------|
----0--0--0----0--0--0--|----0--0--0----0--0--0--|----0--0--0--0--0--0----|


                                                                       
----------------------|-----------------------|-----------------------|
----------------------|-----------------------|-----------------------|
----------------------|-----------------------|-----------------------|
----0--0--0--0--------|----0--0--0--0--0------|----0--0--0--0------0--|


                                                                          
-----------------------|------------------------|------------------------|
-----------------------|------------------------|------------------------|
-----------------------|------------------------|------------------------|
----0--0--0--0--0------|--0--0--0--0--0------0--|----0--0--0----0--0--0--|


                                                                         
------------------------|------------------------|----------------------|
------------------------|------------------------|----------------------|
------------------------|------------------------|----------------------|
----0--0--0----0--0--0--|----0--0--0--0--0--0----|----0--0--0--0--------|


                                                                        
-----------------------|-----------------------|-----------------------|
-----------------------|-----------------------|-----------------------|
-----------------------|-----------------------|-----------------------|
----0--0--0--0--0------|----0--0--0--0------0--|----0--0--0--0--0------|


                                                                           
------------------------|------------------------|------------------------|
------------------------|------------------------|------------------------|
------------------------|------------------------|------------------------|
--0--0--0--0--0------0--|----0--0--0----0--0--0--|----0--0--0----0--0--0--|


                    
------------------||
------------------||
------------------||
------------------||
Comments