Opeth - Death Whispered A Lullaby Chords & Tabs

 

Death Whispered A Lullaby Chords & Tabs

Opeth Chords & Tabs

Version: 1 Type: Tab 0 ratings
1 star 2 stars 3 stars 4 stars 5 stars
comments

Death Whispered A Lullaby Tab

Opeth - Death Whispered a Lullaby
From the "Damnation" album
Tabbed by Jared Davis 


Verse - Played on an acoustic guitar
|------------------------
|------------------------
|----------0-----------2-
|-----4------4-------4---
|---4---4------4---4-----
|-2--------------2-------


Interlude/Pre-chorus
[ Tab from: http://www.guitartabs.cc/tabs/o/opeth/death_whispered_a_lullaby_tab.html ]
Riff 1 (Lead)- Clean tone electric guitar
|---------------------------------------------------
|---------------------------------------------------
|---------------------------------------------------
|-4-4/7--9-11---14-11--9h11p9-9---------------------
|-------------------------------12p11-9-------------
|---------------------------------------12h14p9-7h9-

Chorus

Rhythm (Strum these chords)
"Oh.............Sleep my child"
|-------------------------------------
|-------------------------------------
|---------------5---------------7-5---
|-7-------------5---------------7-5-5-
|-7-------------3---------------5-3-5-
|-5---------------------------------3-

Ok, those are the pretty important riffs. I'll post the rest another time.
Comments