Operation Ivy - Yelling In My Ear Chords & Tabs

 

Yelling In My Ear Chords & Tabs

Operation Ivy Chords & Tabs

Version: 3 Type: Tab 0 ratings
1 star 2 stars 3 stars 4 stars 5 stars
comments

Yelling In My Ear Tab

Title:  Yelling In My Ear
Artist:  Operation Ivy
Album:  Energy
Tuning:  Standard
Release: 1991

()- let ring

Intro: 3x Times
e|-----------------------------------|
B|-----------------------------------| 
G|-----------------------------------|  
D|---------3-3-2-----2-2-----4-4-----|  
A|-----2-2-------3-3-----5-5---------| 
E|-3-3-------------------------------|



Intro Part Two: 1x Time
e|-----------------------------------|
B|-----------------------------------| 
G|-----------------------------------|  
D|-----3-2----2----(4)---------------| 
A|---2------3----5-------------------| 
E|-3---------------------------------|



Verse 1: 3x Times
e|-3-x-3-x-3-x-3-x-x-x-x-x-x-x-x-----| 
B|-3-x-3-x-3-x-3-x-5-x-5-x-7-x-7-----| 
G|-4-x-4-x-4-x-4-x-5-x-5-x-7-x-7-----| 
D|-5-x-5-x-5-x-5-x-5-x-5-x-7-x-7-----| 
A|-----------------------------------| 
E|-----------------------------------|



Verse 2: 1x Time
e|-3-x-3-x-3-x-3---x-x---x-x---------| 
B|-3-x-3-x-3-x-3---x-5---x-7---------| 
G|-4-x-4-x-4-x-4---x-5---x-7---------| 
D|-5-x-5-x-5-x-5---x-5---x-7---------| 
A|-----------------------------------| 
E|-----------------------------------|



Chorus: 4x Times
e|-----------------------------------|
B|-----------------------------------|
G|------------------5-5-5-5-7-7-7-7--|
D|--5-5-5-5-5-5-5-5-5-5-5-5-7-7-7-7--|
A|--5-5-5-5-5-5-5-5-3-3-3-3-5-5-5-5--|
E|--3-3-3-3-3-3-3-3------------------|



Intro: 3x Times
e|-----------------------------------|
B|-----------------------------------| 
G|-----------------------------------|  
D|---------3-3-2-----2-2-----4-4-----|  
A|-----2-2-------3-3-----5-5---------| 
E|-3-3-------------------------------|



Intro Part Two: 1x Time
e|-----------------------------------|
B|-----------------------------------| 
G|-----------------------------------|  
D|-----3-2----2----(4)---------------| 
A|---2------3----5-------------------| 
E|-3---------------------------------|



Verse 1: 3x Times
e|-3-x-3-x-3-x-3-x-x-x-x-x-x-x-x-----| 
B|-3-x-3-x-3-x-3-x-5-x-5-x-7-x-7-----| 
G|-4-x-4-x-4-x-4-x-5-x-5-x-7-x-7-----| 
D|-5-x-5-x-5-x-5-x-5-x-5-x-7-x-7-----| 
A|-----------------------------------| 
E|-----------------------------------|



Verse 2: 1x Time
e|-3-x-3-x-3-x-3---x-x---x-x---------| 
B|-3-x-3-x-3-x-3---x-5---x-7---------| 
G|-4-x-4-x-4-x-4---x-5---x-7---------| 
D|-5-x-5-x-5-x-5---x-5---x-7---------| 
A|-----------------------------------| 
E|-----------------------------------|



Chorus: 4x Times
e|-----------------------------------|
B|-----------------------------------|
G|------------------5-5-5-5-7-7-7-7--|
D|--5-5-5-5-5-5-5-5-5-5-5-5-7-7-7-7--|
A|--5-5-5-5-5-5-5-5-3-3-3-3-5-5-5-5--|
E|--3-3-3-3-3-3-3-3------------------|

 
[ Tab from: http://www.guitartabs.cc/tabs/o/operation_ivy/yelling_in_my_ear_tab_ver_3.html ]
Solo: 1x Time
e|-----------10-------------------------------------------------------------| 
B|--8-----8-----8-----8--------10-------10----------------------------------| 
G|-10b12----------10-----12b14----12b14---12b14---6-6-6-5-3-------3-5b------| 
D|----------------------------------------------------------5-3-5-----------| 
A|--------------------------------------------------------------------------| 
E|--------------------------------------------------------------------------| 

e|--------------------------------------------------------------------------| 
B|--8----8-8-8----8-8------------10-------10--------------------------------| 
G|-10b12----10b12-----10b12-12b14---10b14-----5-3-3-3---3-5-6-5----3--------| 
D|----------------------------------------------------5---------5-----(5)---| 
A|--------------------------------------------------------------------------| 
E|--------------------------------------------------------------------------|



Outro: 3x Times
Palm Muted
e|--------------------------------------|
B|--------------------------------------|
G|---------3-3-2-------2-2-----4-4------|
D|-----2-2---------3-3-----5-5----------|
A|-3-3----------------------------------|
E|--------------------------------------| 
.........................................

Outro Part Two: 1x Time
e|--------------------------------------|
B|--------------------------------------|
G|-----3-2---2---4----------------------|
D|---2-----3---5------------------------|
A|-3------------------------------------|
E|--------------------------------------|


Chorus: 4x Times
e|-----------------------------------|
B|-----------------------------------|
G|------------------5-5-5-5-7-7-7-7--|
D|--5-5-5-5-5-5-5-5-5-5-5-5-7-7-7-7--|
A|--5-5-5-5-5-5-5-5-3-3-3-3-5-5-5-5--|
E|--3-3-3-3-3-3-3-3------------------|

Lyrics: 

Never a reason for the attack,
It's impulse and insane,
When I wanna talk sense to you it's just like spitting at the rain,
I've come to know that when I first saw you I should have ran away,
Kicked myself a thousand times but now it's too late.

Yellin' in my ear,
You try to control me,
Yellin' in my ear,
You look but you don't see,
Yellin' in my ear,
Yellin' in my ear,
Yellin', in my ear.

You got a big mouth,
You ever gunna get a clue?
Your loud, 
obnoxious,
When your gone i still hear you.
Always spewin' shit with your irritating voice.
I don't wanna listen but I got no choice.

Yellin' in my ear,
You try to control me,
Yellin' in my ear,
You look but you don't see,
Yellin' in my ear,
Yellin' in my ear,
Yellin', in my ear.


Ah, quit actin' like your nuts.
Pick it up, Pick it up.
Just shut the hell up.

Yellin' in my ear,
You try to control me,
Yellin' in my ear,
You look but you don't see,
Yellin' in my ear,
Yellin' in my ear,
Yellin', in my ear.
Right!
Comments