Operation Ivy - Yelling In My Ear Chords & Tabs

 

Yelling In My Ear Chords & Tabs

Operation Ivy Chords & Tabs

Version: 2 Type: Tab 0 ratings
1 star 2 stars 3 stars 4 stars 5 stars
comments

Yelling In My Ear Tab

yellin' in my ear by operation ivy
tabbed b Geof Andersen


(x)= implied note

Main lead
e|------------------------------------*--------------------------|
B|------------------------------------*--------------------------|
G|------------------------------------*--------------------------|
D|----------3-3-2--------2--------4---*---------3--2-----2----(4)|
A|------2-2--------3---3---3--5-5--(5)*------2--------3-----5----|
E|--3-3-------------------------------*---3----------------------|

Verse  (ska rhythm)
e|--3----3----x----x-----------------|
B|--3----3----5----7-----------------|
G|--4----4----5----7-----------------|
D|--5----5----5----7-----------------|
A|-----------------------------------|
E|-----------------------------------|

chorus  (distorted)    (or use open chords)
e|-------------------------|
B|--G-----------C----D-----|
G|--------------5----7-----|
D|--5-----5-----5----7-----|
A|--5-----5-----3----5-----|
E|--3-----3----------------|
[ Tab from: http://www.guitartabs.cc/tabs/o/operation_ivy/yelling_in_my_ear_tab_ver_2.html ]
Solo                                                "Quit acting like your..."
e|------------10-------------------------------------------------------------|
B|---8-----8-----8-----8--------10-------10----------------------------------|
G|--10b12----------10-----12b14----12b14---12b14---6-6-6-5-3-------3-5b.-----|
D|-----------------------------------------------------------5-3-5-----------|
A|---------------------------------------------------------------------------|
E|---------------------------------------------------------------------------|

   "pick it up...."          "huh,  huh"     "just shut the hell up"
e|---------------------------------------------------------------------------|
B|--8----8-8-8----8-8------------10-------10---------------------------------|
G|-10b12----10b12-----10b12-12b14---10b14-----5-3-3-3---3-5-6-5----3---------|
D|----------------------------------------------------5---------5-----(5)----|
A|---------------------------------------------------------------------------|
E|---------------------------------------------------------------------------|

For the last lead just palm mute the first three times and then open up for
the last time
Comments