Operation Ivy - Yelling In My Ear Chords & Tabs

 

Yelling In My Ear Chords & Tabs

Operation Ivy Chords & Tabs

Version: 2 Type: Bass Tab 0 ratings
1 star 2 stars 3 stars 4 stars 5 stars
comments

Yelling In My Ear Bass Tab

Song:  Yelling In My Ear        
Band:  Operation Ivy  (BEST FRIKEN BAND!!)                      
tabbed by:  SpikeyNerd@aol.com



Intro
G:---------------------------------------------------------------
D:---------------------------------------------------------------
A:---------------------------------------------------------------
E:-3--------------3----------------3-------------3----------15/1--------------
---------
[ Tab from: http://www.guitartabs.cc/tabs/o/operation_ivy/yelling_in_my_ear_btab_ver_2.html ]
Verse
G:----3-2---2---2----------------------------------------------------
D:---2-----3---3---3-----3-2---2--2--------------------------------------
A:-3---------------------2------3--3---3------------------------------
E:----------------------3-----------------------------------------

chorus

G:------------------------5-5-3-3-------------|----------------5-3------------
---------
D:--5-5-3-3------------------------5-5-3-3-|---5-3--------------5-3-----------
---
A:-------------5-5-3-3------------------------|---------5-3-------------------
------
E:-----------------------------------------------|--------------------------

shut teh hell up and quick acting liek ur nuts part
G:--------------------------------5-3------------------------------
D:-3-2-1-0----------3-2-1-0-------5-3--------------------------------------
A:-----------3-2-1-0-------------------------------------------------
E:----------------------------------------------------------------44444444----
Comments