Operation Ivy - Unity Chords & Tabs

 

Unity Chords & Tabs

Operation Ivy Chords & Tabs

Version: 2 Type: Tab 0 ratings
1 star 2 stars 3 stars 4 stars 5 stars
comments

Unity Tab

Band: Operation Ivy
Song: Unity
Album: Energy
Track: 7
Released: April 19, 1991
Tabbed By: Ronny Collins


Intro
e ---------------------------------------------------------
B ---------------------------------------------------------
G -----7---9---7-------7--7~--7~---------------------------
D -7---7---9---7---7---7--7~--7~---------------------------
A -7---5---7---5---7---5--9~--5~---------------------------
E -5---------------5---------------------------------------
[ Tab from: http://www.guitartabs.cc/tabs/o/operation_ivy/unity_tab_ver_2.html ]
Chorus
e ----------------------------------------------------------
B ----------------------------------------------------------
G -----------7-7-9-9-7-7------------------------------------
D -7-7-7-7-7-7-7-9-9-7-7------------------------------------
A -7-7-7-7-7-5-5-7-7-5-5------------------------------------
E -5-5-5-5-5------------------------------------------------

Verse
e ----------------------------------------------------------
B -5-5-5-5-7-7-7-7-7-9-9-9-9-9------------------------------
G -6-6-6-6-7-7-7-7-7-9-9-9-9-9------------------------------
D -7-7-7-7-7-7-7-7-7-9-9-9-9-9------------------------------
A ----------------------------------------------------------
E ----------------------------------------------------------
Note:The timing is not right.

Bridge
e ----------------------------------------------------------
B ----------------------------------------------------------
G -----------7-7-7--9--9-9-9--7-7-7-------------------------
D -7--7-7-7--7-7-7--9--9-9-9--7-7-7------X-4----------------
A -7--7-7-7--5-5-5--7--7-7-7--5-5-5-------------------------
E -5--5-5-5-------------------------------------------------
Comments