Operation Ivy - Unity Chords & Tabs

 

Unity Chords & Tabs

Operation Ivy Chords & Tabs

Version: 1 Type: Tab 0 ratings
1 star 2 stars 3 stars 4 stars 5 stars
comments

Unity Tab

#----------------------------------PLEASE NOTE---------------------------------#
#This file is the author's own work and represents their interpretation of the #
#song. You may only use this file for private study, scholarship, or research. #
#------------------------------------------------------------------------------#

Song: Unity
Artists: Operation Ivy


INTRO

Guitar1

e|------------------------------------------------|
B|------------------------------------------------|
G|-------7----2----7---------7----1--1-1--7--7-7--|
D|--7----7----2----7----7----7----2--2-2--7--7-7--|
A|--7----5----1----5----7----5----2--2-2--5--5-5--|
E|--5---------0---------5---------0--0-0----------|

Guitar2

e|------------------------------------------------|
B|------------------------------------------------|
G|-------7----9----7---------7----9--9-9--7--7-7--|
D|--7----7----9----7----7----7----9--9-9--7--7-7--|
A|--7----5----7----5----7----5----7--7-7--5--5-5--|
E|--5-------------------5-------------------------|


INTRO CONTINUED & CHORUS

Guitar1 (clean)

e|--------------------------------------|
B|--------------------------------------|
G|-----------7-7-7-7--1-1-1-1--7-7-7-7--|
D|--7-7-7-7--7-7-7-7--2-2-2-2--7-7-7-7--|
A|--7-7-7-7--5-5-5-5--2-2-2-2--5-5-5-5--|
E|--5-5-5-5-----------0-0-0-0-----------|

Guitar2 (with distortion)
[ Tab from: http://www.guitartabs.cc/tabs/o/operation_ivy/unity_tab.html ]
e|----------------------------------------------|
B|--(5-5-5-5)--(7-7-7-7)--(9-9-9-9)--(7-7-7-7)--|
G|---6-6-6-6----7-7-7-7----9-9-9-9----7-7-7-7---|
D|---7-7-7-7----7-7-7-7----9-9-9-9----7-7-7-7---|
A|----------------------------------------------|
E|----------------------------------------------|


VERSE

Guitar1 (clean)

e|------------------------------------------|
B|------------------------------------------|
G|-----------7-7-7-7--9-9-9-9--11-11-11-11--|
D|--7-7-7-7--7-7-7-7--9-9-9-9--11-11-11-11--|
A|--7-7-7-7--5-5-5-5--7-7-7-7--9--9--9--9---|
E|--5-5-5-5---------------------------------|

Guitar2 (clean)

e|------------------------------------------|
B|--5-5-5-5--7-7-7-7--9-9-9-9--11-11-11-11--|
G|--6-6-6-6--7-7-7-7--9-9-9-9--11-11-11-11--|
D|--7-7-7-7--7-7-7-7--9-9-9-9--11-11-11-11--|
A|------------------------------------------|
E|------------------------------------------|


BRIDGE

Guitar1 (clean)

e|------------------------------------|
B|------------------------------------|
G|------------7-7-7--1--1-1-1--7-7-7--|
D|--7--7-7-7--7-7-7--2--2-2-2--7-7-7--|
A|--7--7-7-7--5-5-5--2--2-2-2--5-5-5--|
E|--5--5-5-5---------0--0-0-0---------|

Guitar2 (clean)

e|------------------------------------|
B|--5--5-5-5--7-7-7--9--9-9-9--7-7-7--|
G|--6--6-6-6--7-7-7--9--9-9-9--7-7-7--|
D|--7--7-7-7--7-7-7--9--9-9-9--7-7-7--|
A|------------------------------------|
E|------------------------------------|


END

Guitar1 (clean)

e|-----|
B|-----|
G|-----|
D|--7--|
A|--7--|
E|--5--|

Guitar2 (clean)

e|-----|
B|--5--|
G|--6--|
D|--7--|
A|-----|
E|-----|


INTRO
INTRO CONTINUED
VERSE  x2
CHORUS  x2
VERSE  x2
CHORUS  x2
VERSE  x2
CHORUS  x2
BRIDGE  x2
CHORUS  x2
(DRUMS + VOCAL PART)
CHORUS  x2
END
Comments