Operation Ivy - Unity Chords & Tabs

 

Unity Chords & Tabs

Operation Ivy Chords & Tabs

Version: 2 Type: Bass Tab 0 ratings
1 star 2 stars 3 stars 4 stars 5 stars
comments

Unity Bass Tab

Song: Unity
Band: Operation Ivy
tabbed by: SpikeyNerd



"There's A War....."
G:----------------------------------------------------------------
D:----------------------------------------------------------------
A:--------5-----7-----5------------5-----7(hold)-5-5-5-5-
E:-5--------------------------5---------------------------------
[ Tab from: http://www.guitartabs.cc/tabs/o/operation_ivy/unity_btab_ver_2.html ]
"Stop This waaaaaaaaar"
G:----------------------------------------------------------------
D:----------------------------------------------------------------
A:---------------5-5-5-5-5-7-7-7-7-7-5-5-5-5-5-5-5-5-
E:-5-5-5-5-5---------------------------------------------------

Verses
G:---------------------------------------------------------------
D:---------------4---------------5-5---------------------------
A:------4-7--5------------5-7-------7-6-5------------------
E:-5-5---------------7-7---------------------7----------------

"Ain't Nuttin' Wrong..."
G:---------------------------------------------------------------
D:---------------------------------------------------------------
A:--------------5-5-5-5--7--7-7-7--5-5-5-5--------------
E:--5--5-5-5--------------------------------------------------

i kinda used a lil from reel big fish.. but try it out

Comments