Operation Ivy - Unity Chords & Tabs

 

Unity Chords & Tabs

Operation Ivy Chords & Tabs

Version: 1 Type: Bass Tab 0 ratings
1 star 2 stars 3 stars 4 stars 5 stars
comments

Unity Bass Tab

#----------------------------------PLEASE NOTE---------------------------------#
#This file is the author's own work and represents their interpretation of the #
#song. You may only use this file for private study, scholarship, or research. #
#------------------------------------------------------------------------------#

Song: Unity
Artists: Operation Ivy

Intro
G|--------------------------|
D|--------------------------|
A|---------5-------------5--|
E|--5-------------0---------|
[ Tab from: http://www.guitartabs.cc/tabs/o/operation_ivy/unity_btab.html ]
Chorus
G|-------------------------------------------------------------------------|
D|-------------------------------------------------------------------------|
A|-----------5-5-5-5--7-7-7-7--5-5-5-5-----------5-5-5-5----------5-5-5-5--|
E|--5-5-5-5-----------------------------5-5-5-5-----------0-0-0-0----------|

Verse
G|-------------------------------------------------------|
D|--------------------4-------------------4-44-----------|
A|--------4--7---5-55---55---------2--5---------7-6-5----|
E|--5--5---------------------0--0---------------------7--|

It sounds very good!!!

e-mail: mc_call@email.it for questions.
Comments