Operation Ivy - Uncertain Chords & Tabs

 

Uncertain Chords & Tabs

Operation Ivy Chords & Tabs

Version: 2 Type: Bass Tab 0 ratings
1 star 2 stars 3 stars 4 stars 5 stars
comments

Uncertain Bass Tab

Song: Uncertain
     Band: Operation Ivy
     Album: Unreleased Energy
     tabbed by: Keith Mattson



        
     Intro
     G:-----------------------------------------------------------
     D:------------------------3-4-5---------------5-4-3----------
     A:----------------2-3-4-5---------------------------5-4-3----
     E:3-3332-3-3332-3---------------3-3332-3-3332-------------5-4

        
     Verse (first part repeats, the 2 ending parts vary in the 
     song) 
     G:-----------------------------------|-5-3-5-|--------------
     D:-----------------------------------|-------|-----------3-4-5
     A:---------2-3-5---------------------|-------|---2-3-4-5----
     E:3--3--3---------3333-2-33332-33332-|-------|-3------------
     

        
     Pre Chorus (2x)
     G:----------------------------------------------------------
     D:---------------------5-3-2-0------------------------------
     A:-3-3-3-3-3-5-5-5-5-5---------3-2-0------------------------
     E:-----------------------------------3----------------------
[ Tab from: http://www.guitartabs.cc/tabs/o/operation_ivy/uncertain_btab_ver_2.html ]
        
     Chorus
     G:----------------------------------------------------------
     D:-----------5-33-5-3-2-0----------------5-33-5-3-----------
     A:3--1--------------------2----3--1-------------------------
     E:------3-33------------------------3-33--------------------

        
     Bass Solo
     G:---------------------|---------|--------------------------
     D:---------------------|-3-3h5-3-|--------------------------
     A:---------------------|---------|-slide up to-1010-99-88-77-1010
     E:3-3332-3-3332-3-3332-|---------|--------------------------


     G:------------|---------------------------------------------
     D-------------|-5>-5-4-3----------------------------------3-4-5
     A:------------|----------5-4-3--------------------2-3-4-5---
     E:99-88-77-66-|----------------54-3-3332-3-3332-3-----------


       If you know the song, you'll know what I mean when i did the 
     solo.  
       The first part is almost constant, like the rest of the song, 
     and
       I just added all of the walks up and down.  This is all 
     correct, I
       may have left out a little fill or two, but other than that 
     this is 
       the whole damn thing. 
Comments