Operation Ivy - The Crowd Chords & Tabs

 

The Crowd Chords & Tabs

Operation Ivy Chords & Tabs

Version: 3 Type: Bass Tab 0 ratings
1 star 2 stars 3 stars 4 stars 5 stars
comments

The Crowd Bass Tab

-------------------------
operation ivy - the crowd
-------------------------

tabbed by thomas
100% sure dunno.


intro
G||--------------------------|--------5--7--------5--7--|
D||--------2--4--------2--4--|-----7-----------7--------|
A||-----4-----------4--------|--5-----------5-----------|
E||--2-----------2-----------|--------------------------|

|--------------------------|--------7--9--------7--9--|
|--------5--7--------5--7--|-----9-----------9--------|
|-----7-----------7--------|--7-----------7-----------|
|--5-----------5-----------|--------------------------|

|--------------------------|--7--7--5--5--------------|
|--------------------------|--------------7--7--5--7--|
|--9--9--8--8--7--7--5--5--|--------------------------|
|--------------------------|--------------------------|

|--------------------------|--9--7--------------------||
|--------5--7--------5--7--|--------9--8--7--7--------||
|-----7-----------7--------|--------------------7--5--||
|--5-----------5-----------|--------------------------||

[ Tab from: http://www.guitartabs.cc/tabs/o/operation_ivy/the_crowd_btab_ver_3.html ]
verse part I
G||------------------------|------------------------|
D||------------------------|------------------------|
A||--9----9--9--9--9--7----|--5----5--5--5--5--7----|
E||------------------------|------------------------|

|------------------------|------------------------||
|------------------------|------------------------||
|------------------------|--7----7--7--7--7--7----||
|--5----5--5--5--5--7----|------------------------||


verse part II
G||--------------------------|--------------------------|
D||--------------------------|--------------------------|
A||--------------------------|--5--5--5--5--5--5--5--5--|
E||--2--2--2--2--2--2--2--2--|--------------------------|

--------------------------|--------------------------||
--------------------------|--------------------------||
--------------------------|--7--7--7--7--7--7--7--7--||
--5--5--5--5--5--5--5--5--|--------------------------||


chorus
G||------------------------|-------------------------|
D||------------------------|-------------------------|
A||----------4--5----4--2--|-------4--5--7--5--4--2--|
E||--2----5----------------|--5----------------------|

|-------------------|--------------------------||
|-------------------|--4--4--2--2--------------||
|-------------------|--------------4--4--2-----||
|--2----------------|-----------------------4--||
Comments