Operation Ivy - The Crowd Chords & Tabs

 

The Crowd Chords & Tabs

Operation Ivy Chords & Tabs

Version: 1 Type: Bass Tab 0 ratings
1 star 2 stars 3 stars 4 stars 5 stars
comments

The Crowd Bass Tab

Operation Ivy - The Crowd
by Mike Cavaliere, bassist from The Soup

Original tabber (Jon McCarty) was a little off on the solo and the chorus
Now the solo's a little hard and you need to play it fast, but when you get 
it down it'll be easy:

Solo in beginning:
G:-----------------------:-0-7-9-7----------------77-66-55---------
D:-----2h4-----7h-----5h7:---------9-7---------------------7-------
A:---4-------9------7----:-------------99-88-77-5------------------
E:-2-------7------5------:-----------------------------------------

G:-----------99-88-77-5---
D:------------------------
A:----9----9--------------
E:-77---77----------------
[ Tab from: http://www.guitartabs.cc/tabs/o/operation_ivy/the_crowd_btab.html ]
Then comes the Pre-chorus:
G:-------------------------------
D:-------------------------------  X2
A:-9-99-9-7-5555-7-0000-5-7777---
E:-------------------------------

Then the verse:
G:---------------------------------------
D:---------------------------------------  X2
A:----------55555555----------77777777---
E:-22222222----------55555555------------

And then the pre-chorus again:
G:-------------------------------
D:-------------------------------  X2
A:-9-99-9-7-5555-7-0000-5-7777---
E:-------------------------------

Now the chorus:
G:-------------------------------
D:-----------------5-------------  X2
A:---3-5-3-5-3-5-7---------------
E:-0-----------------------------

and from there you can fill in the rest, it just repeats itself

e-mail me, PoPiNx@aol.com for questions

Comments