Operation Ivy - Take Warning Chords & Tabs

 

Take Warning Chords & Tabs

Operation Ivy Chords & Tabs

Version: 2 Type: Bass Tab 0 ratings
1 star 2 stars 3 stars 4 stars 5 stars
comments

Take Warning Bass Tab

by yember   OP IVY TAKE WARNING

Intro
G||----------------------------------
D||*-----1-----1--1------1-----1--1--
A||*--2-----4---------2-----4--------
E||----------------------------------

    Chorus
G||-------------------------1-----------
D||*-------4-4-4-2-1--1-4--------1-1--
A||*--2--2--------------------4--4------
E||-------------------------------------                   
    Take Warning..........take warning...
[ Tab from: http://www.guitartabs.cc/tabs/o/operation_ivy/take_warning_btab_ver_2.html ]
    Verse
G||--------------------------------4-----
D||*-------6-6--6----6---------4-4---4---
A||*--4--4---------4-------2-2---------0-
E||--------------------4-----------------
    Stand by your friends, wrong or right

do this for the 4th part of verse
G||-------------------------------------
D||*-------6-6--6----6------------------
A||*--4--4---------4-----2--2-2--0---0--
E||--------------------4----------------

    Interlude
G||---------------4----------4-3-2-0-
D||*--2--2-2-2--0--------0-2---------
A||*----------------2--2-------------
E||----------------------------------
Comments