Operation Ivy - Sound System Chords & Tabs

 

Sound System Chords & Tabs

Operation Ivy Chords & Tabs

Version: 1 Type: Chords 0 ratings
1 star 2 stars 3 stars 4 stars 5 stars
comments

Sound System Chords

   
#----------------------------------PLEASE NOTE---------------------------------#
#This file is the author's own work and represents their interpretation of the #
#song. You may only use this file for private study, scholarship, or research. #
#------------------------------------------------------------------------------#

From: SkunX42@aol.com
Date: Wed, 29 Nov 1995 16:33:12 -0500
[ Tab from: http://www.guitartabs.cc/tabs/o/operation_ivy/sound_system_crd.html ]
SOUND SYSTEM
      by Operation Ivy
tabbed by: SkunX42@aol.com
=0D
CHORDS USED
=0D
    D      A      E      G
=0D
|---2--------------------3---|
|---3------2-------------2---|
|---2------2------2------0---|
|---0------2------2------0---|
|----------0------1------0---|
|-----------------0------3---|
=0D
use ska strumming for verses and chorus( muted, upstrummed chords)
=0D
Intro:  A, D, A, E, A, E
=0D
|-------------------------|
|--------------9-9-9-8-7--|
|---sl.\6-6-6-------------| (i'm pretty sure about this little solo)
|-------------------------|
|-------------------------|
|-------------------------|



--PART.BOUNDARY.0.433.mail06.mail.aol.com.817680791--
Comments