Operation Ivy - Someday Chords & Tabs

 

Someday Chords & Tabs

Operation Ivy Chords & Tabs

Version: 1 Type: Bass Tab 0 ratings
1 star 2 stars 3 stars 4 stars 5 stars
comments

Someday Bass Tab

Song: Someday
     Band: Operation Ivy
     Album: Unreleased Energy
     tabbed by: Keith Mattson


        
     Intro
     G:----------------------------------------------------------
     D:--5--------------5-------------5-------------------5-5-5-5
     A:7---7----------7---7---------7---7---------3-3-3-3--------
     E:------5-0-5-7--------5-0-5-7-------5-0-5-7----------------
[ Tab from: http://www.guitartabs.cc/tabs/o/operation_ivy/someday_btab.html ]
        
     Verse
     G:----------------------------------------------------------
     D:----------------------------------------------------------
     A:7-7-7-7-7---0-4-5-7-5-4-----0-4-5-77777-------------55555-
     E:----------5-------------7-5-------------55555-33333-------

        
     Verse (continued)
     G:----------------------------------------------------------
     D:--5-------------------------------------------------------
     A:7---7---------7-5-4---------77777-------------55555-------
     E:------5-0-5-7-------7-55555-------55555-33333-------------
      
        
     Chorus
     G:----------------------------------------------------------
     D:--------------------------45-------------5-77-55-44-------
     A:------5-3-2-0-----------5----------5-4-0------------77----
     E:22222-------------22222------22222------------------------

       I need a goddamn life.
Comments