Operation Ivy - Smiling Chords & Tabs

 

Smiling Chords & Tabs

Operation Ivy Chords & Tabs

Version: 2 Type: Bass Tab 0 ratings
1 star 2 stars 3 stars 4 stars 5 stars
comments

Smiling Bass Tab

Artist: Operation Ivy
Song Title: Smiling

Intro:

G|---|-----------------|
D|-r-|-----------------|
A|-r-|-5-5-5-5-5-5-5-5-|
E|---|-----------------|


Verse:                         
[ Tab from: http://www.guitartabs.cc/tabs/o/operation_ivy/smiling_btab_ver_2.html ]
G|---------------------------|-----------------------|
D|-----------------------2-2-|-3-3-3-2-0-3-3-3-3-2-0-|
A|---2-5-5-5-5-3-3-3-3-3-----|-----------------------|
E|-3-------------------------|-----------------------|


Pre-Chorus:

G|---------------------|
D|-------------3-3-3---|
A|-------3-3-3-------5-|
E|-3-3-3---------------|


Chorus:

G|-------------------------|
D|-------------------------|
A|-----2-3-3-2-------------|
E|-3-5---------5-3-3-5-7-8-|


Adam

Have fun
Comments