Operation Ivy - Sarcastic Chords & Tabs

 

Sarcastic Chords & Tabs

Operation Ivy Chords & Tabs

Version: 1 Type: Bass Tab

Sarcastic Bass Tab

Artist: Operation Ivy
Song: Sarcastic
e-mail: iamtheowl133@aol.com


part one: play 2x 
G|-------------------------------------------------------------------------|
D|--------------5-2----2---------------------------------------------------|
A|-55555------------5-----55555--------------------------------------------|
E|--------55555------------------------------------------------------------|

part 2(now i see i've almost been left in yesterday)played 2x 
G|-------------------------------------------------------------------------|
D|---------------------------------5-2----2--------------------------------|
A|--------------------55555-------------5----55555-------------------------|
E|-33333333-55555555--------55555------------------------------------------|
[ Tab from: http://www.guitartabs.cc/tabs/o/operation_ivy/sarcastic_btab.html ]
repeat part 1 twice pause then play two more times 
part 3 (fall back spring forward) played twice 
G|-------------------------------------------------------------------------|
D|--------77777-55555------------------------------------------------------|
A|-55555---------------55555-----------------------------------------------|
E|-------------------------------------------------------------------------|

part 1 four times 
part four(sometimes i think you don't know what you are) 
G|-------------------------------------------------------------------------|
D|-------------------------=-------5-2----2--------------------------------|
A|-------------------55555-------------5-----55555-------------------------|
E|-33333333-5-3-2-0--------55555-------------------------------------------|

G|-------------------------------------------------------------------------|
D|------------------2-4-7-4-2---------------------5-2-----2----------------|
A|---------------4-------------4--55555---------------5-----55555----------|
E|-33333333-5--------------------------55555-------------------------------|

part one four times 
part two twice 
part three twice 
part one twice