Operation Ivy - Room Without A Window Chords & Tabs

 

Room Without A Window Chords & Tabs

Operation Ivy Chords & Tabs

Version: 2 Type: Bass Tab 0 ratings
1 star 2 stars 3 stars 4 stars 5 stars
comments

Room Without A Window Bass Tab

   
Room Without a Window-Operation Ivy

Intro
-----------0------------------------------------------0-------------
--------------0--------------------------------------------0----------
------------------------------------------------------------------0-1-2
--3---3---------3-----------------3-------3-----------------3--------

Verse
-------5---2-----------------------------5---2--------------------------
---------------5---3-2---3--5-----------------5-----3--2-------------
--3---------------------5-----------3------------------------5------2--
------------------------------------------------------------------3-------
[ Tab from: http://www.guitartabs.cc/tabs/o/operation_ivy/room_without_a_window_btab_ver_2.html ]
Chorus
----------------3----------------------------------------
-------3--------------3---------------------------------
--1-1----1-------1-----1----------4------------3------
------------------------------2--2----2--1----------1--

Bridge    3 1/2x
--------------------------------------------------------------
----------------------3-5------------------------------------
-3-3----3-3---3-3--------3-3----3-3---3-3---------2-
--------------------------------------------------------3----

Bridge 2...Play A,B,A,C,A,D

A
----------------------
----------------------
--3-3---3-----2----
------------3--------
B
------------------
--3--2----3-5--
---------5-------
------------------
C
------------------
--3-2------------
--------5-----2--
-----------3------
D
----------------
-3-3-2--------
----------5-2--
-----------------

Comments