Operation Ivy - One Of These Days Chords & Tabs

 

One Of These Days Chords & Tabs

Operation Ivy Chords & Tabs

Version: 1 Type: Tab 1 rating
1 star 2 stars 3 stars 4 stars 5 stars
comments

One Of These Days Tab

-------------------------------------------------------------------------------
                       ONE OF THESE DAYS - Operation Ivy
-------------------------------------------------------------------------------

ny yember any q's my sn is guitar1loser!ENJOY easy song
[ Tab from: http://www.guitartabs.cc/tabs/o/operation_ivy/one_of_these_days_tab.html ]
Repeat 3 times
e|---7-x-7-x-7-x-7-x-7-x-7-x-7-x-7-x-|-x-9-x-9-x-7-x-7-x-7-x-7-x-7------------|
B|---7-x-7-x-7-x-7-x-7-x-7-x-7-x-7-x-|-x-9-x-9-x-7-x-7-x-7-x-7-x-7------------|
G|---7-x-7-x-7-x-7-x-8-x-8-x-8-x-8-x-|-x-9-x-9-x-8-x-7-x-7-x-7-x-7------------|
D|-------------------9-x-9-x-9-x-9-x-|-----------9----------------------------|
A|-----------------------------------|----------------------------------------|
E|-----------------------------------|----------------------------------------|

Basic Riff
Comments