Operation Ivy - Officer Chords & Tabs

 

Officer Chords & Tabs

Operation Ivy Chords & Tabs

Version: 1 Type: Bass Tab 0 ratings
1 star 2 stars 3 stars 4 stars 5 stars
comments

Officer Bass Tab

BAND:OPERATION IVY
SONG: OFFICER
TABBED BY: BEN MEYER benm@oakweb.com



INTRO:(P MEANS PLUCK HARD)

G:-----------------P4-P5-P6-P7-
D:-----------------------------
A:-5-5----5-5-5-5--------------
E:------5----------------------



VERSE:

G:---------------------------------------------
D:---------5-5---------------------P2-P3-P4-P5-
A:-5-3-------------3-5--5-3------3-------------
E:-----5-3-----3-5----------5-3-3--------------


LITTLE THING BEFORE CHORUS (HE'S JUST A FUCKIN' COP!!)
[ Tab from: http://www.guitartabs.cc/tabs/o/operation_ivy/officer_btab.html ]
G:----------------------------
D:------------------------5---
A:----------------------5---5-
E:-5-5-5-5-5-5-3-3-3-3--------


CHORUS:

G:------------------------------*---------------
D:--------------7-7-7-7-5-5-4-4-*---------------  (PLAY BEFORE STARS
A:------------------------------*-5-5-5-5-5-5-5-   TILL THE END OF THE
E:-5-5-3-5-3-5------------------*---------------   CHORUS THEN DO OTHER
                                                    SIDE)

THIS SONG IS NOT YET COMPLETE BUT IT WILL BE SOON!!!
Comments