Operation Ivy - Knowledge Chords & Tabs

 

Knowledge Chords & Tabs

Operation Ivy Chords & Tabs

Version: 1 Type: Tab 0 ratings
1 star 2 stars 3 stars 4 stars 5 stars
comments

Knowledge Tab

-------------------------------------------------------------------------------
                                KNOWLEDGE - Operation Ivy
-------------------------------------------------------------------------------

By: YEMBER any q's my sn is guitar1loser ENJOY~~

   
P.M-palm mute
INTRO
e|-----------------------------------------------|
B|-----------------------------------------------|
G|--5-5-5-5-5--3-3-3-3-3-------------------------|
D|--5-5-5-5-5--3-3-3-3-3--3-3-3-3-3--------------|
A|--3-3-3-3-3--1-1-1-1-1--3-3-3-3-3--------------|
E|------------------------1-1-1-1-1--------------|
P.M---------------------------------
 
VERSE
e|-----------------------------------------------|
B|-----------------------------------------------|
G|--5-5-5-5-5--3-3-3-3-3-------------------------|
D|--5-5-5-5-5--3-3-3-3-3--3-3-3-3-3--------------|
A|--3-3-3-3-3--1-1-1-1-1--3-3-3-3-3--------------|
E|------------------------1-1-1-1-1--------------|
P.M--------------------------------
[ Tab from: http://www.guitartabs.cc/tabs/o/operation_ivy/knowledge_tab.html ]
CHORUS
e|-----------------------------------------------|
B|-----------------------------------------------|
G|--5-5-5-5-5--3-3-3-3-3-------------------------|
D|--5-5-5-5-5--3-3-3-3-3--3-3-3-3-3--------------|
A|--3-3-3-3-3--1-1-1-1-1--3-3-3-3-3--------------|
E|------------------------1-1-1-1-1--------------|
(NOT PALM MUTED JUST STRUM)

SOLO 
e|-----------------------------------------------|
B|-----------------------------------------------|
G|-----------------------------------------------|
D|--3-2-0--------3-2-0--------1-1----------------|
A|---------3-3-3--------3-3-3------1-1-----------|
E|------------------------------------------1----|

e|-----------------------------------------------|
B|-----------------------------------------------|
G|-----------------------------------------------|
D|--3-2-0--------3-2-0--------1-1----------------|
A|---------3-3-3--------3-3-3------1-1-----------|
E|------------------------------------------3----|

OUTRO-(*) bend or use the whamey bar
e|----------------------|
B|-----------------*----|
G|--5--5--5--5--5-------|
D|--5--5--5--5--5-------|
A|--3--3--3--3--3-------|
E|----------------------|

THAT'S (more than) JUST FINE!

Comments