Operation Ivy - Knowledge Chords & Tabs

 

Knowledge Chords & Tabs

Operation Ivy Chords & Tabs

Version: 3 Type: Bass Tab 0 ratings
1 star 2 stars 3 stars 4 stars 5 stars
comments

Knowledge Bass Tab

Knowledge by Operation Ivy. 

Pretty easy bass line, still fun to play. 100% correct. I would suggest using a
pick to keep the rythm perfect esspecially during the guitar solos where it is
crucial that you are in time to make it sound right.

If you have any comments email me at fiction148@mac.com . Thanks, and have fun with it. 
(This was tabbed by Fez)


NOTE!!! : *= play 8 times


    "I know things..." (Verse)
G --------------------------------------
D ----------------0-1-2-3-1-0----------
A ----3**--1*------------------1-0------  X2
E --------------------------------------


    "All I know is..." (Chorus)
G --------------------------------------
D --------------------------------------
A ----3**--1*--------------------------- X2
E --------------1*----------------------


    "We get told to decide...." (Verse #2)
G --------------------------------------
D ----------------0-1-2-3-1-0----------
A ----3**--1*------------------1-0------  X2
E --------------------------------------

[ Tab from: http://www.guitartabs.cc/tabs/o/operation_ivy/knowledge_btab_ver_3.html ]
    "All I know is..." (Chorus)
G --------------------------------------
D --------------------------------------
A ----3**--1*--------------------------- X2
E --------------1*----------------------


"Guitar Solo #1" (Verse)

G --------------------------------------
D ----------------0-1-2-3-1-0----------
A ----3**--1*------------------1-0------  X2
E --------------------------------------


"Watcha gonna do with..." (Bridge)
G --------------------------------------
D --------------------------------------
A ----3**--1*--------0-1-2-2-3-3-------- X2
E --------------1-1----------------------


"Guitar Solo #2" (Bridge)
G --------------------------------------
D --------------------------------------
A ----3**--1*--------0-1-2-2-3-3-------- X2
E --------------1-1----------------------


"All I know is..." (Chorus)
G --------------------------------------
D --------------------------------------
A ----3**--1*--------------------------- X4
E --------------1*----------------------

 
 (Outro)   "And That's Fine"
G --------------------------------------
D --------------------------------------
A ----3-3-3-3-3------------------------- X1
E --------------------------------------
Comments