Operation Ivy - Junkies Runnin Dry Chords & Tabs

 

Junkies Runnin Dry Chords & Tabs

Operation Ivy Chords & Tabs

Version: 1 Type: Bass Tab 0 ratings
1 star 2 stars 3 stars 4 stars 5 stars
comments

Junkies Runnin Dry Bass Tab

Song:JUNKIES RUNNIN DRY
Band:OPERATION IVY
Album:ENERGY (I THINK)
tabbed by:BEN MEYER benm@oakweb.com



intro/chorus
[ Tab from: http://www.guitartabs.cc/tabs/o/operation_ivy/junkies_runnin_dry_btab.html ]
G:----------------------------
D:---------------------2-0----
A:-------------3-3-3-3-----3--
E:-1-1-1-3-3-3----------------

verse:

G:----------------------------------
D:----------------------------------
A:-----------------3-3-3-3----------
E:-3-3-3-3-1-1-1-1---------3-3-3-3--


I STILL HAVE TO FIGURE OUT THE BRIGE BUT THATS SHOULD BE DONE SOON
Comments