Operation Ivy - I Got No Chords & Tabs

 

I Got No Chords & Tabs

Operation Ivy Chords & Tabs

Version: 2 Type: Bass Tab 0 ratings
1 star 2 stars 3 stars 4 stars 5 stars
comments

I Got No Bass Tab

I GOT NO
Operation Ivy


Verse

---------------------------------------------------------------------
---------------------------------------------------------------------
-3-3-------------3-3-------------3-3-------------------------------
-------1-0-1-3-------1-0-1-3--------1-0-1-3----3-3-1-0-1-3--


Chourus
[ Tab from: http://www.guitartabs.cc/tabs/o/operation_ivy/i_got_no_btab_ver_2.html ]
----------------------------------------------0--------------------------
---------------------3-1-0---------------------3-2-0-----------------
-3--3-3--3-3-3------------3-1-0--------------------3-2-0---------
----------------------------------------3-1-------------------------

Chorus continued:

-------------------------
-------------------0----
---------------0-1----1-----
-3-1-1-1-3--------------------


^v^tabbed by Voopy^v^


Comments