Operation Ivy - Here We Go Again Chords & Tabs

 

Here We Go Again Chords & Tabs

Operation Ivy Chords & Tabs

Version: 1 Type: Bass Tab 0 ratings
1 star 2 stars 3 stars 4 stars 5 stars
comments

Here We Go Again Bass Tab

BAND:OPERATION IVY
SONG: Here We Go Again
TABBED BY: Tal .H.- hitnaarut@hotmail.com

INTRO:

G:-----------------------------
D:-----------------------------
A:---4---3---2---1-------------
E:-----------------------------

VERSE:

G:-------------------------------------------------
D:----------1-1-1-1-------------------------1-1-1-1
A:--3-3-3-3-----------------1-1-1-1-3-3-3-3--------
E:------------------3-3-3-3------------------------

VERSE(continue):

G:---------1-1-2-2------
D:-3-3-3-3--------------
A:----------------------
E:----------------------

CHORUS:
[ Tab from: http://www.guitartabs.cc/tabs/o/operation_ivy/here_we_go_again_btab.html ]
G:----------------------------------------------
D:----------------------------66-5-3-5----------  (play chorus twice)
A:----2-4-5--4-2-4-----2-4-5--------------------   
E:-3----------------3---------------------------   
 
In the end of the song u play the Chorus once (instead of twice) 
and then this riff 5 times (I think)

G:----------*----------
D:----------*---------- on the second time you play only the first part  
A:----2-4-5-*-4-2-4---- of the riff (before the *)
E:-3--------*----------

And then the chorus 4 times
And in the end 
G:-----
D:----- 
A:-----
E:-3---
Comments