Operation Ivy - Hedgecore Chords & Tabs

 

Hedgecore Chords & Tabs

Operation Ivy Chords & Tabs

Version: 1 Type: Tab 1 rating
1 star 2 stars 3 stars 4 stars 5 stars
comments

Hedgecore Tab

   
#----------------------------------PLEASE NOTE---------------------------------#
#This file is the author's own work and represents their interpretation of the #
#song. You may only use this file for private study, scholarship, or research. #
#------------------------------------------------------------------------------#
Previously submitted by : RellDaSlasher
Tabber: RellDaSlasher
Operation Ivy
Hedgecore

Standard Tuning.

Chords:


    5        5
    5        7
A:  6    D:  7
    7        7
    7        5
    5        x

     A              D
e---x-5-x-5-x-5-x-5--5-x-5--5-x-5-----
b---x-5-x-5-x-5-x-5--7-x-7--7-x-7-----
g---x-6-x-6-x-6-x-6--7-x-7--7-x-7-----    do this part once only
d---x-7-x-7-x-7-x-7--7-x-7--7-x-7-----
a-------------------------------------
e-------------------------------------
    A                 D
e---x-5-x-5-x-5-x-5--x-5-x-5-x-5-x-5--
b---x-5-x-5-x-5-x-5--x-7-x-7-x-7-x-7--
g---x-6-x-6-x-6-x-6--x-7-x-7-x-7-x-7--
d---x-7-x-7-x-7-x-7--x-7-x-7-x-7-x-7--
a-------------------------------------
e-------------------------------------
  A            D    "HEDGECORE!"
e-------------------------------------
b-------------------------------------    I'm not sure if those
g--------------7-7-(-7-7-7-7-7-7-)----    last D's are played or
d--7-7--7-7-7--7-7-(-7-7-7-7-7-7-)----    not...but when playing
a--7-7--7-7-7--5-5-(-5-5-5-5-5-5-)----    by yourself it gives the
e--5-5--5-5-5-------------------------    song a fuller sound
[ Tab from: http://www.guitartabs.cc/tabs/o/operation_ivy/hedgecore_tab.html ]
We're Doing Hedges to stay alive
e-------------------------------------
b-------------------------------------   This is probably the part of
g--------------------7-7--------------   the song I'm least sure
d-----7--7--7---7-7--7-7--7--7-7-7-7--   about.  I think this is what
a-----7--7--7---7-7--5-5--7--7-7-7-7--   is played.  It also might
e-----5--5--5---5-5-------5--5-5-5-5--   just be an A over and over


WHAAATTTT happened to your bush...
e--x-5-x-5-x-5-x-5-x-5-x-5-x-5-x-5----
b--x-5-x-5-x-5-x-5-x-5-x-5-x-5-x-5----   repeat into oblivion.
g--x-6-x-6-x-6-x-6-x-6-x-6-x-6-x-6----   this song was played so
d--x-7-x-7-x-7-x-7-x-7-x-7-x-7-x-7----   differently on so many
a-------------------------------------   occasions, so every once in
e-------------------------------------   a while add a D in there

                    STOP!
e--x-5-------------------5---5-------
b--x-5-------------------7---7-------
g--x-6-------------------7---7-------
d--x-7- (do 14 times)----7---7-------
a------------------------5---5-------
e------------------------------------


Final Verse Backing

e---x-5-x-5-x-5-x-5--5/10-x-10-x-10-x-10-x-10--10\5--
b---x-5-x-5-x-5-x-5--5/10-x-10-x-10-x-10-x-10--10\5--
g---x-6-x-6-x-6-x-6--6/11-x-11-x-11-x-11-x-11--11\6--
d---x-7-x-7-x-7-x-7--7/12-x-12-x-12-x-12-x-12--12\7--
a----------------------------------------------------
e----------------------------------------------------

there are all sorts of versions of this song.  One of which there is a slowed down-ish part where Jesse usually commands the crowd to dance.  Or something.... it goes like this.

e--x-x--5--x-x--5---  Note:  those mutes are VERY heavy.
b--x-x--5--x-x--5---         to achieve the desired effect
g--x-x--6--x-x--6---         add a palm mute as well as the 
d--x-x--7--x-x--7---         finger mute.
a-------------------
e-------------------







Figured out by Rell.

Also, don't be shy about corrections...the site has 'em for a reason.

Comments