Operation Ivy - Healthy Body, Sick Mind Chords & Tabs

 

Healthy Body, Sick Mind Chords & Tabs

Operation Ivy Chords & Tabs

Version: 1 Type: Chords 0 ratings
1 star 2 stars 3 stars 4 stars 5 stars
comments

Healthy Body, Sick Mind Chords

   
#----------------------------------PLEASE NOTE---------------------------------#
#This file is the author's own work and represents their interpretation of the #
#song. You may only use this file for private study, scholarship, or research. #
#------------------------------------------------------------------------------##
#

Song:  Healthy Body, Sick Mind
Band:  Operation Ivy
Albums: Energy and Seedy (uncut version)
tabbed by: SkunX42@aol.com

i got a few requests for this and after a while i finally got it!
for the verses and choruses use ska-type strumming:
fast, kinda muted upsrokes

CHORDS

    D       A        G      C
    
|---2----------------3---------------|
|---3-------2--------0------1--------|
|---2-------2--------0------0--------|
|---0-------2--------0------2--------|
|-----------0--------2------3--------|
|--------------------3---------------|

or use these, doesn't really make a difference:

     D     A        G     C
|---------------------------------|
|---------------------------------|
|----7--------------------5-------|
|----7-----7--------5-----5-------|
|----5-----7--------5-----3-------|
|----------5--------3-------------|

Intro:  D, A, D, A, D, A


Riff:
b= bend string
[ Tab from: http://www.guitartabs.cc/tabs/o/operation_ivy/healthy_body_sick_mind_crd.html ]
|----------------------------|            |-----------------|
|---3-5-5b-5b-3-7-9-9b-9b-7--|            |--7b-7b-7b-7b-7--|
|----------------------------|play that 3x|-----------------|
|----------------------------|then---->   |-----------------|
|----------------------------|            |-----------------|
|----------------------------|            |-----------------|

play that on one guitar while other plays G, C (x3) D




CHORUS:

G                      C              D
healthy body sick mind you're working overtime
(same chords)
healthy body sick mind too hectic, too hectic
healthy body sick mind ??????? (the lyrics are screwed up here)


play Riff 

Verse2:

the money you spend on running shoes could feed me for a week ect ...

CHORUS

Outro:

|-----------------------|
|--3-3-5b-5b-5b-5b-5-3--|
|-----------------------| 
|-----------------------| 
|-----------------------|
|-----------------------|

C-C-C-C, D-D, D-D

|-----------------------|
|--7-7-9b-9b-9b-9b-9-7--|
|-----------------------|
|-----------------------|
|-----------------------|
|-----------------------|

C-C-C-C, D-D, D-D, G

well, that's all!  have fun.  note to all who sent in requests:
i have been completely swamped, but i have written down what
everyone wants so i'll get around to it soon! still can't find my
damn Rancid self-titled CD!!!!!!  
send all comments, questions, punk tabs, and requests (i'll do my
best!) to me at: SkunX42@aol.com

OI!
Comments