Operation Ivy - Healthy Body Chords & Tabs

 

Healthy Body Chords & Tabs

Operation Ivy Chords & Tabs

Version: 1 Type: Bass Tab 0 ratings
1 star 2 stars 3 stars 4 stars 5 stars
comments

Healthy Body Bass Tab

Healthy Body
Operation Ivy
 
Well, this has been an impossible to find bass tab for me so instead I just
tabbed it myself, so enjoy what I consider the best bassline to play by
Operation Ivy
Intro
G:---------------------------------------------------------------
D:-----------------------2-3-4-5-3-2---------------------2-3-4-5-
A:-5-5-5-3-2-----2-3-5-3-------------5-3-2---2---2-3-5-3---------
E:-----------5-3---------------------------5---3-----------------
 

G:---------------------------------------------------------------
D:-3-2-----------------------------------------------------------
A:-----5-5-------------------------------------------------------
E:---------10/3-3------------------------------------------------
 
verse
G:---------------------------------------------------------------
D:-------2-------2---------------------------2-5-3-2-------------
A:---2-5-----2-5---3-2-0-2-5-5-5-3-2-----2-5---------5-3-2---3---
E:-3-------3-------------------------5-3-------------------5-----
 
[ Tab from: http://www.guitartabs.cc/tabs/o/operation_ivy/healthy_body_btab.html ]
G:---------------------------------------------------------------
D:---------------------------------------------------------------
A:-5-5-5-3-2----------------------------------------------------------
E:-----------5----------------------------------------------------
 
pre chorus
G:---------------------------------------------------------------
D:---2-3-5---2-3-5-5-3-2-----------------------------------------
A:-3-------3-------------5---2-3-5-3-3-----3-3-----5-5-5-3-2-----
E:-------------------------3-----------3-3-----2-3-----------5---
 
chorus
G:---------------------------------------------------------------
D:---------------------------------------------------------------
A:---------5-5-5-5-3-3-3-3-5-5-5-5---------5-5-5-5-3-3-3-3-5-5-5-5
E:-3-3-3-3-------------------------3-3-3-3------------------------
 

G:---------------------------------------------------------------
D:---------------------------------------------------------------
A:---------5-5-5-5-3-3-3-3-5-5-5-5---3-5---------------------------
E:-3-3-3-3-------------------------3------------------------------
 
post chorus
G:---------------------------------------------------------------
D:-------2---2---5-------2-----2-5-------2---2-3-5---------------
A:---2-5---3---5-----2-5---3-3-------2-5---3-------5-3-2-5-------
E:-3---------------3---------------3-----------------------10/3-3
 
Outro
G:-----------------------------------------------------------------------
D:-------2-------2-------------------5-5-5-5-5-5-5-5---------------------
A:---2-5-----2-5---3-3-3-3-3-5-5-5-5-----------------3-3-3-3-3-5-5-5-5---
E:-3-------3-----------------------------------------------------------3-
 
Intro
Verse 
Prechorus
Chorus
Postchorus
Verse
Pre chorus
Chorus
outro
 
Tabbed by The Sparklemaster
sparklemaster@home.com




Comments