Operation Ivy - Freeze Up Chords & Tabs

 

Freeze Up Chords & Tabs

Operation Ivy Chords & Tabs

Version: 2 Type: Bass Tab 0 ratings
1 star 2 stars 3 stars 4 stars 5 stars
comments

Freeze Up Bass Tab

Freeze Up (bass)
OP IVY

 

G----------------------------------------------------------------
D-------------------77777705-504-4----------------------------5--
A---777777----7-77-5------------------777777----7-77-5555555-----5---   
E-5-------5-8-----------------------5-------5-8----------------------

 Empty factories to the east and all our waste...


[ Tab from: http://www.guitartabs.cc/tabs/o/operation_ivy/freeze_up_btab_ver_2.html ]
G----------------------------------
D--------------------2----4-74-----
A----------------3-33-3--5-5--5----  X2
E-5-585--333-2-0-------------------

 1989 stand up and take a look around...



G----------7-6-5-4-
D------------------
A---------5-4-3-2--
E-5-58-5-8---------

          ^^^^^^^^ sometimes he does this part ascending instead. 

 there's a freeze up, there's a freeze up coming... 

 

by Mat Burger
Comments