Operation Ivy - Bombshell Chords & Tabs

 

Bombshell Chords & Tabs

Operation Ivy Chords & Tabs

Version: 3 Type: Tab

Bombshell Tab

INTRO
e|-------------------------|
B|-------------------------|
G|-------------------------|
D|7--------7---------------|
A|5-5-7-7--5-5-7(let ring)-|
E|--3-5-5----3-5-----------|

Verse
e|-----------------------------------|
B|-----------------------------------|
G|-----------------------------------|
D|7-7-7-7----------------------------|
A|5-5-5-5--5-5-5-5--7-7-7-7--7-7-7-7-|
E|---------3-3-3-3--5-5-5-5--5-5-5-5-|

Chorus
e|--------------|
B|--------------|
G|--------------|
D|7-7-7---------|
A|5-5-5--5--7-7-|
E|-------3--5-5-|

OK THERE ARE 3 VERSIONS OF SOLO
[ Tab from: http://www.guitartabs.cc/tabs/o/operation_ivy/bombshell_tab_ver_3.html ]
Ver1
e|------------------------------|
B|------------------------------|
G|----7------7-9----7---7-9-9---|
D|7-9----7-9-----7----9-------7-|
A|------------------------------|
E|------------------------------|

Ver2
e|-------------------------------|
B|2-4-7--2-4-7-9-2--4-7-4-7-9-9-2|
G|-------------------------------|
D|-------------------------------|
A|-------------------------------|
E|-------------------------------|

Ver3
e|------------------------------------|
B|----9------9-11--------9-9--11-11---|
G|7-9----7-9------7--9-9------------7-|
D|------------------------------------|
A|------------------------------------|
E|------------------------------------|

That's it THANX