Operation Ivy - Big City Chords & Tabs

 

Big City Chords & Tabs

Operation Ivy Chords & Tabs

Version: 1 Type: Tab 0 ratings
1 star 2 stars 3 stars 4 stars 5 stars
comments

Big City Tab

#----------------------------------PLEASE NOTE---------------------------------#
#This file is the author's own work and represents their interpretation of the #
#song. You may only use this file for private study, scholarship, or research. #
#------------------------------------------------------------------------------#


---------------------------------------------------------------------------------------------------------------------------
                         BIG CITY - Operation Ivy
---------------------------------------------------------------------------------------------------------------------------
by: yember any q's my sn is guitar1loser ENJOY~~

riff 1
|------------------------------------------|
|------------------------------------------|
|------------------------------------------|
|-----------------------------5--------5---|
|-------3---------5-----3-3-3----3-3-3---3-|
|-1-1-1-----3-3-3--------------------------|
[ Tab from: http://www.guitartabs.cc/tabs/o/operation_ivy/big_city_tab.html ]
variant 1
|------------------------------------------|
|------------------------------------------|
|------------------------------------------|
|---------------------------5-5------------|
|-------3---------5---3-3-3------3---------|
|-1-1-1-----3-3-3--------------------------|

variant 2
|------------------------------------------|
|------------------------------------------|
|------------------------------5-5-5-------|
|---------------------------5--5-5-5-------|
|-------3---------5---3-3-3----3-3-3-------|
|-1-1-1-----3-3-3--------------------------|

riff 2
|------------------------------------------|
|------------------------------------------|
|------------------------------------5-----|
|---------------------------5--3-3-3-------|
|-------3---------5---3-3-3------------3---|
|-1-1-1-----3-3-3--------------------------|

riff 3 (first half)                        (second half)
|--------------------------------------|-------------------------------------|
|--------------------------------------|-------------------------------------|
|--------------------------------------|--5----5----5-5----------------------|
|-5-5-5-5-5-5-5-5-3-3-3-3--------------|--5----5----5-5--5----8---3-3--3--3--|
|-3-3-3-3-3-3-3-3-1-1-1-1-5-5-5-5------|--3----3----3-3--5----8---3-3--3--3--|
|-------------------------3-3-3-3------|-----------------3----6---1-1--1--1--|

(riff 1)        intro
(riff 2)        intro
(riff 1)        intro
(variant 1)     intro

Comments