Operation Ivy - Bad Town Chords & Tabs

 

Bad Town Chords & Tabs

Operation Ivy Chords & Tabs

Version: 1 Type: Bass Tab 0 ratings
1 star 2 stars 3 stars 4 stars 5 stars
comments

Bad Town Bass Tab

-----------------------------------------------------------------------------
                       BAD TOWN - Operation Ivy
-----------------------------------------------------------------------------

Bass Tab
By: pancreas@vt.edu

(Verse One)
G--------------------------3--3--3-----2----0-----
D---3---------------------------------------------
A-------------------------------------------------
E-------------------------------------------------

G-------------------------------------------------
D-------------------------------------------------
A---5-----------------5--5--5-----1-----0---------
E-------------------------------------------------

(Repeat bassline for rest of verse)

[ Tab from: http://www.guitartabs.cc/tabs/o/operation_ivy/bad_town_btab.html ]
(Chorus)
G-----------------------------0--2--0----------------
D------3--3------1---3-----3-----------3---0---------
A-1-------------------------------------------3------
E----------------------------------------------------

G----0----2------0---2--3--2--0-------------------
D-------------3-------------------3---0-----------
A-------------------------------------------------
E-------------------------------------------------

(Verse Two)

G-------------------------------------------------
D-------------------------------------------------
A-------------------------------------------------
E-------------------------------------------------


That's my interpretation...
Feel free to e-mail me for comment, corrections, etc.

Pancreas
pancreas@vt.edu

=============================================================================


Comments