Operation Ivy - Artificial Life Chords & Tabs

 

Artificial Life Chords & Tabs

Operation Ivy Chords & Tabs

Version: 2 Type: Bass Tab 0 ratings
1 star 2 stars 3 stars 4 stars 5 stars
comments

Artificial Life Bass Tab

ARTIFICIAL LIFE - Operation Ivy


Intro/Verse:
G|---------------------|
D|---------------------|
A|---4---2-5-4-2-4-0-2-|
E|-5---3---------------|
[ Tab from: http://www.guitartabs.cc/tabs/o/operation_ivy/artificial_life_btab_ver_2.html ]
Chorus:
G|-------------------------------------------|
D|---------------------------2-3-5-----------|
A|---------------2-3-5-5-5-5---------7-5-4-5-|
E|-5-5-5-5-5-3-3-------------------5---------|

Bridge:
G|---------------------------------------------------|
D|---------------------------------5-7-5-------------|
A|-----3---3-------2-3-3-3-5-5-5-5-----------4-5-4-5-|
E|-5-5---5---5-3-3-----------------------5-5---------|
Comments