Operation Cliff Clavin - Douglass Paul Mcdonell Chords & Tabs

 

Douglass Paul Mcdonell Chords & Tabs

Operation Cliff Clavin Chords & Tabs

Version: 1 Type: Bass Tab 0 ratings
1 star 2 stars 3 stars 4 stars 5 stars
comments

Douglass Paul Mcdonell Bass Tab

Song: Douglas Paul McDonell     
Band: Operation Cliff Clavin
Album: Paradise lozt
tabbed by: Mason  CptHowdy45@aol.com

>=strum, >>=strum a lot

intro
G:- -------------------------------------------------------------- 
D:---------------- ----------------------------------------------- 
A:---------------5-5-5-5----7-7-6-7---------------------------- 
E:-- -3-3-3-3-------------------------------------------------------
[ Tab from: http://www.guitartabs.cc/tabs/o/operation_cliff_clavin/douglass_paul_mcdonell_btab.html ]
G:- -------------------------------------------------------------- 
D:---------------- ----------------------------------------------- 
A:------ --------5-5-5-5---3-3-3-3-----6-7-------------------- 
E:-- 4-4-4-4------------------------------------------------------

verse
G:- ------------------------------------------------------------- 
D:---------- --------------------------------------------------------
A:----------5>---------5>-------5>------------------------------- 
E:-----3>--------5>--------3>-------5>>------------------------------

chorus
G:- --------------------------------------------------------
D:-------------------------------------------------- 
A:-------7>---5>--3>--------------------------------------------- 
E:------------------------7>--3>----5>----------------------------


Comments