Opera Ix - Call Of The Wood Chords & Tabs

 

Call Of The Wood Chords & Tabs

Opera Ix Chords & Tabs

Version: 1 Type: Tab 0 ratings
1 star 2 stars 3 stars 4 stars 5 stars
comments

Call Of The Wood Tab

Author/Artist: OPERA IX
Title: CALL OF THE WOOD
Album: CALL OF THE WOOD
Transcribed by: KERNOUS
Email: KERNOUS@RELAPSECULT.COM

STANDARD TUNING.LISTEN TO THE SONG FOR TIMING.
   riff1    acoustic guitar
-|--------------------------------------------------------
-|--------0-----------0---------------0-----------0-------
-|------0-----------0---0---------3-----------3-----0-----
-|----2-----------2-------2-----3---3-------3---3-----3---
-|--2-----------2-------------1-----------1---------------
-|0-----------0-------------------------------------------

                                                  riff1 end
-----------------------------------------------------0-------|
---------0-----------0---------------0-----------------0-----|
-------0-----------0---0-----------0---0---------0-------0---|
-----2-----------2-------2-------2-------2-----2---2-------2-|
---2-----------2---------------2-----------2-----------------|
-0-----------0---------------4---------------1---------------|

   riff2 with distortion
-|-----------------------------------------------------------|
-|-----------------------------------------------------------|
-|-----------------------------------------------------------|
-|---------------------------------------------8-8-8--5-5-5--|
-|-9---9-910-9-7-9---9-910-9-7-9---9-910-9-7---6-6-6--3-3-3--|
-|-7---7-7-8-7-5-7---7-7-8-7-5-7---7-7-8-7-5-----------------|
[ Tab from: http://www.guitartabs.cc/tabs/o/opera_ix/call_of_the_wood_tab.html ]
   riff3 with distortion and bass playing riff2
-|--------------------------------------------------------------|
-|--------------------------------------------------------------|
-|--------------------------------------------------------------|
-|-4-------4-5-7---5-------------4-------4-5-7---5--------------|
-|-2-------2-3-5---3--------h----2-------2-3-5---3-----------h--|
-|--------------------/3---/2-----------------------/3---/2-/1--|

  keyboard transcribed to guitar during "cernunos"
-|-14----10----14----10----14----10----14----10----15----10----
-|----12----12----12----12----12----12----12----12----12----12-
-|-------------------------------------------------------------
-|-------------------------------------------------------------
-|-------------------------------------------------------------
-|-------------------------------------------------------------


-15----10----15----10----15----10----|
----12----12----12----12----12----12-|
-------------------------------------|
-------------------------------------|
-------------------------------------|
-------------------------------------|

  bass riff with guitar with a little distortion
-|---------------------------------------|
-|-------------------------5-------------|
-|-----2-3/6-----------2-3---5-3-2-3/5-3-|
-|-0-----------4-1-0---------------------|

THAT IS ALL I GOT FOR NOW.IF ANYONE WANTS TO FINISH THE REST OR CORRECT MY
MISTAKES PLEASE EMAIL IT TO ME.KERNOUS@RELAPSECULT.COM
Comments