Openfly - My Sound Chords & Tabs

 

My Sound Chords & Tabs

Openfly Chords & Tabs

Version: 1 Type: Tab 0 ratings
1 star 2 stars 3 stars 4 stars 5 stars
comments

My Sound Tab

Intro x2
E|--------4----------5--5/7---------7--------4----------------------|
B|--------4----------5--5/7---------7--------4----------------------|
G|-----6--6----------6--6/8------9--9--------5----------------------|
D|---6------------7--7--7/9----9-----------6-6----------------------|
A|-4------------7------------7-----------6--------------------------|
E|------------5------------------------4----------------------------|
   (ooo              weee                ooo)

Verse x2
E|---4-4-4-----5h7p5------7-7-7-------------------------------------|
B|---6-6-6----------5-----7-7-7-------------------------------------|
G|---6-6-6---6------------9-9-9-------------------------------------|
D|---4-4-4---7------------9-9-9--6--8-------------------------------|
A|-4---------7----------7--------6--8-------------------------------|
E|-----------5-------------------4--6-------------------------------|
I....I see the way the clock hand turns__________

Chorus x2
E|---------------------------------------|--------------------------
B|---------------------------------------|--------------------------
G|--------------9-9-9-9---6-6-6-6--------|-----------9-9-9-9-6-6-6-6
D|--7-7-7-7-7---9-9-9-9---6-6-6-6--7-7-7-|-7-7-7-7-7-9-9-9-9-6-6-6-6
A|--7-7-7-7-7---7-7-7-7---4-4-4-4--7-7-7-|-7-7-7-7-7-7-7-7-7-4-4-4-4 
E|--5-5-5-5-5----------------------5-5-5-|-5-5-5-5-5----------------
I'm glad I've Finally found_______


E|-------|----------------------------------------------------------|
B|-------|----------------------------------------------------------|
G|-9-9-9-|----------------------------------------------------------|
D|-9-9-9-|----------------------------------------------------------|
A|-7-7-7-|----------------------------------------------------------|
E|-------|----------------------------------------------------------|

Verse x2
E|---4-4-4-----5h7p5------7-7-7-------------------------------------|
B|---6-6-6----------5-----7-7-7-------------------------------------|
G|---6-6-6---6------------9-9-9-------------------------------------|
D|---4-4-4---7------------9-9-9--6--8-------------------------------|
A|-4---------7----------7--------6--8-------------------------------|
E|-----------5-------------------4--6-------------------------------|
Your....Waitin' for somthing that wont come__________________
[ Tab from: http://www.guitartabs.cc/tabs/o/openfly/my_sound_tab.html ]
Chorus x 2
E|---------------------------------------|--------------------------
B|---------------------------------------|--------------------------
G|--------------9-9-9-9---6-6-6-6--------|-----------9-9-9-9-6-6-6-6
D|--7-7-7-7-7---9-9-9-9---6-6-6-6--7-7-7-|-7-7-7-7-7-9-9-9-9-6-6-6-6
A|--7-7-7-7-7---7-7-7-7---4-4-4-4--7-7-7-|-7-7-7-7-7-7-7-7-7-4-4-4-4 
E|--5-5-5-5-5----------------------5-5-5-|-5-5-5-5-5----------------
I'm glad I've Finally found_______
E|-------|----------------------------------------------------------|
B|-------|----------------------------------------------------------|
G|-9-9-9-|----------------------------------------------------------|
D|-9-9-9-|----------------------------------------------------------|
A|-7-7-7-|----------------------------------------------------------|
E|-------|----------------------------------------------------------|

Bridge(palm mute/distortion)
E|------------------------------------------------------------------|
B|------------------------------------------------------------------|
G|------------------------------------------------------------------|
D|--6-6-6-6-6-6-6-6-6-6-6-6-6-6-6-6-6-6-6-6-6-6-6-6-6-6-6-6-6-6-6---|
A|--4-4-4-4-4-4-4-4-4-4-4-4-4-4-4-4-4-4-4-4-4-4-4-4-4-4-4-4-4-4-4---|
E|------------------------------------------------------------------|
It's a rollercoaster ride_______________________

(distortion)
E|------------------------------------------------------------------|
B|------------------------------------------------------------------|
G|--6-6-6-6------------9-9-9-9--------------------------------------|
D|--6-6-6-6--7-7-7-7---9-9-9-9--6-6-6-------------------------------|
A|--4-4-4-4--7-7-7-7---7-7-7-7--6-6-6-------------------------------|
E|-----------5-5-5-5------------4-4-4-------------------------------|


solo (switch *__^*, 2nd time)
E|------------------------------17-16-14----------------------------|
B|--14-14-14--17-16-14-------------------14-14-14-17-16-14--17-16-14|
G|---------------------14-14-14-------------------------------------|
D|------------------------------------------------------------------|
A|------------------------------------------------------------------|
E|------------------------------------------------------------------|

E|-----------------------------------------|-*14^*------------------|
B|--17-16-14-17-16-14-17-16-14-17-16-*16^*-|------------------------|
G|-----------------------------------------|------------------------|
D|-----------------------------------------|------------------------|
A|-----------------------------------------|------------------------|
E|-----------------------------------------|------------------------|

(distortion)x2
E|------------------------------------------------------------------|
B|------------------------------------------------------------------|
G|--6-6-6-6------------9-9-9-9--------------------------------------|
D|--6-6-6-6--7-7-7-7---9-9-9-9--6-6-6-------------------------------|
A|--4-4-4-4--7-7-7-7---7-7-7-7--6-6-6-------------------------------|
E|-----------5-5-5-5------------4-4-4-------------------------------|

outro x2
E|---4-4-4-----5h7p5------7-7-7-------------------------------------|
B|---6-6-6----------5-----7-7-7-------------------------------------|
G|---6-6-6---6------------9-9-9-------------------------------------|
D|---4-4-4---7------------9-9-9--6--8-------------------------------|
A|-4---------7----------7--------6--8-------------------------------|
E|-----------5-------------------4--6-------------------------------|
Comments