Onkelz Boehse - Bin Ich Nur Gluecklich Wenn Es Schmerzt Chords & Tabs

 

Bin Ich Nur Gluecklich Wenn Es Schmerzt Chords & Tabs

Onkelz Boehse Chords & Tabs

Version: 1 Type: Tab 0 ratings
1 star 2 stars 3 stars 4 stars 5 stars
comments

Bin Ich Nur Gluecklich Wenn Es Schmerzt Tab

   
Bin ich nur glücklich, wenn es schmerzt - Böhse Onkelz

Intro:
------------------------
------0-----------------
----------2-4-5---------
------------------------   4x
-----------------2-3~~--
--0---------------------

Strophe:
---------------------------------------------------------------------------------------
---------------3------------------------3---------------3---------------3--------------
------------0-----0------------------0-----0---------0-----0---------0-----0-----------
---------0------------------------0---------------0----------------0-------------------
---------------------------------------------------------------------------------------
----3-------------------------3---------------2----------------2------------------0----
       Ich zeige dir, was es heißt allein zu sein - Ich trinke Tränen schwarzen Wein
-------------------------------------------0----------------------------0---------------
--------3----------------3--------------3-----3----------------------3-----3------------
-----0-----0----------0-----0--------0----------------------------0------------0--------
--2----------------2--------------------------------------------------------------------
---------------------------------3----------------------------3-------------------------
---------------0-----------------------------------------------------------------3------
Ich folge dir tief, tief in die Nacht, bis den Abgrund deiner Seele steige ich hinab

Ich suche nach der, die mich zum Weinen bringt - Liebe macht süchtig, betrunken und blind
Ich suche nach dem Weg aus der Leere - die mein Leben bestimmt

Bridge:
-----------------------------------------------0------
-------7--7---------5--5---------3---3-----------3----
-----0--0---0-----0------0-----0-------0-----0-----0-- 2x
------------------------------------------------------
--7------------5-------------3------------3-----------
------------------------------------------------------
   
               Ich laß es Tränen regnen
[ Tab from: http://www.guitartabs.cc/tabs/o/onkelz_boehse/bin_ich_nur_gluecklich_wenn_es_schmerzt_tab.html ]
Refrain:
                              G5			G5    [3 5 5 x x 3]
Bin ich nur glücklich wenn es schmerzt			F#5   [2 4 4 x x 2]
F#5                           E5			C5    [x 3 5 5 x 3]
Bin ich nur glücklich wenn es schmerzt			E5    [0 2 x x x 0]
C5                             G5
Ich schenk dir mein gefror'nes Herz
F#5                         E5       C5-  C5-
Ich will das du es für mich wärmst


Zwischenspiel: 2x Intro-Riff

2. Strophe
Ich verirre mich, nichts ist mehr klar. Ich bin da wo vor mir keiner war
Nicht fähig zu lieben, oder liebe ich die Qual, liebe ich den Schmerz bin ich nicht normal
Ich suche nach der die meinen Geist nach Hause bringt, ich suche dnach der für die ich diese Lieder sing
Nur eine Nacht in meinem Zimmer, wie wachen auf und leben für immer
Bridge (wie oben)
Refrain (wie oben)
Solo:
------0-------------------------------------0--------------------------------------
----3---3-----3---------------------------3---3-----3------------------------------
--0-------4-5---5-4---------------------0-------4-5---5-4-2-4~~--0-0-----0-4--0-0--
--------------------5-4~~~-----5-4~~~----------------------------------0-----------
-----------------------------------------------------------------------------------
-----------------------------------------------------------------------------------

---------------------------------------------------------------------------------
--------------------------------------------------15b------------15b-------------
-2/12~~~~~~~~~-9-12-14-16-14-12-11~~~----12-11~~~-----12-12-9-12-----12-12-9-12--
---------------------------------------------------------------------------------
---------------------------------------------------------------------------------
---------------------------------------------------------------------------------
-----------------------------
-----------------------------
-14-16-14-12-14-16-12-14~~~--
-----------------------------
-----------------------------
-----------------------------
Refrain (wie oben) 2x
Outro (2x Intro-Riff)

G5        or   G(no 3rd) [3 5 5 x x 3]
F5        or   F(no 3rd) [1 3 3 x x 1]
C5        or   C(no 3rd) [x 3 5 5 x 3]
E5        or   E(no 3rd) [0 2 x x x 0]

Gruß SoX a.K.a. Sönke
PS.: Die kommt nicht von mir, aber hab die Tabulatur mal irgentwo gefunden und dachte mir die sollte für jedem zugänglich sein!
Comments