Onesidezero - Sleep Through This Chords & Tabs

 

Sleep Through This Chords & Tabs

Onesidezero Chords & Tabs

Version: 1 Type: Tab 0 ratings
1 star 2 stars 3 stars 4 stars 5 stars
comments

Sleep Through This Tab

OneSideZero- Sleep Through This 
Tabbed by-jtthibert 
This is another unreleased OneSideZero tab. This song is excellent 
its my favorite of all the unreleased songs.  This tab is missing some 
parts but I will have them up later so have fun with this one. 

E------------------------------------------------------------------ 
B------------------------------------------------------------------ 
G------------------------------------------------------------------ 
D-------9-9------9--9h10---------7-7-----7h9--9h10----------------- 
A--7-7----------------------------------------------7-------------- 
D------------7-------------5--5------------------------------------ 
[ Tab from: http://www.guitartabs.cc/tabs/o/onesidezero/sleep_through_this_tab.html ]
Beginning Verse 
E------------------------------------------------------------------ 
B------------------------------------------------------------------ 
G------------------------------------------------------------------ 
D------------------------------------------------------------------ 
A---s10--9--7--2--------------------------------------------------- 
D------------------------------------------------------------------ 

Ending Verse 
E------------------------------------------------------------------- 
B--8---8-8-8-7---7-7-7-5---5---------------------------------------- 
G--x---x-x-x-x---x-x-x-x---x(let ring)------------------------------ 
D--5---5-5-5-4---4-4-4-2---2---------------------------------------- 
A------------------------------------------------------------------- 
D------------------------------------------------------------------- 


Chorus(Not Sure about this)Let each note ring-Heavy Distortion 
E------------------------------------------------------------------ 
B------------------------------------------------------------------ 
G------------------------------------------------------------------ 
D--0-----2-------5------------------------------------------------- 
A--0-----2-------5------------------------------------------------- 
D--0-----2-------5------------------------------------------------- 
"...I'll be around..." 

Thats all i know as of right now
Comments